  0
SECTION
  2
HEADER
  9
$ACADVER
  1
AC1009
  9
$INSBASE
 10
0.0
 20
0.0
 30
0.0
  9
$EXTMIN
 10
39.4456613319499
 20
42.19834463635199
 30
0.0
  9
$EXTMAX
 10
331.74298361590741
 20
187.1983349696855
 30
0.0
  9
$LIMMIN
 10
0.0
 20
0.0
  9
$LIMMAX
 10
420.0
 20
297.0
  9
$ORTHOMODE
 70
     0
  9
$REGENMODE
 70
     1
  9
$FILLMODE
 70
     1
  9
$QTEXTMODE
 70
     0
  9
$MIRRTEXT
 70
     0
  9
$DRAGMODE
 70
     2
  9
$LTSCALE
 40
1.0
  9
$OSMODE
 70
    39
  9
$ATTMODE
 70
     1
  9
$TEXTSIZE
 40
2.5
  9
$TRACEWID
 40
1.0
  9
$TEXTSTYLE
  7
STANDARD
  9
$CLAYER
  8
0
  9
$CELTYPE
  6
BYLAYER
  9
$CECOLOR
 62
   256
  9
$DIMSCALE
 40
1.0
  9
$DIMASZ
 40
2.5
  9
$DIMEXO
 40
0.625
  9
$DIMDLI
 40
3.75
  9
$DIMRND
 40
0.0
  9
$DIMDLE
 40
0.0
  9
$DIMEXE
 40
1.25
  9
$DIMTP
 40
0.0
  9
$DIMTM
 40
0.0
  9
$DIMTXT
 40
2.5
  9
$DIMCEN
 40
2.5
  9
$DIMTSZ
 40
0.0
  9
$DIMTOL
 70
     0
  9
$DIMLIM
 70
     0
  9
$DIMTIH
 70
     0
  9
$DIMTOH
 70
     0
  9
$DIMSE1
 70
     0
  9
$DIMSE2
 70
     0
  9
$DIMTAD
 70
     1
  9
$DIMZIN
 70
     8
  9
$DIMBLK
  1

  9
$DIMASO
 70
     1
  9
$DIMSHO
 70
     1
  9
$DIMPOST
  1

  9
$DIMAPOST
  1

  9
$DIMALT
 70
     0
  9
$DIMALTD
 70
     3
  9
$DIMALTF
 40
0.03937007874016
  9
$DIMLFAC
 40
1.0
  9
$DIMTOFL
 70
     1
  9
$DIMTVP
 40
0.0
  9
$DIMTIX
 70
     0
  9
$DIMSOXD
 70
     0
  9
$DIMSAH
 70
     0
  9
$DIMBLK1
  1

  9
$DIMBLK2
  1

  9
$DIMSTYLE
  2
ISO-25
  9
$DIMCLRD
 70
     0
  9
$DIMCLRE
 70
     0
  9
$DIMCLRT
 70
     0
  9
$DIMTFAC
 40
1.0
  9
$DIMGAP
 40
0.625
  9
$LUNITS
 70
     2
  9
$LUPREC
 70
     4
  9
$SKETCHINC
 40
1.0
  9
$FILLETRAD
 40
0.0
  9
$AUNITS
 70
     0
  9
$AUPREC
 70
     0
  9
$MENU
  1
.
  9
$ELEVATION
 40
0.0
  9
$PELEVATION
 40
0.0
  9
$THICKNESS
 40
0.0
  9
$LIMCHECK
 70
     0
  9
$BLIPMODE
 70
     0
  9
$CHAMFERA
 40
0.0
  9
$CHAMFERB
 40
0.0
  9
$SKPOLY
 70
     0
  9
$TDCREATE
 40
2456347.6299741319
  9
$TDUPDATE
 40
2456348.8831910072
  9
$TDINDWG
 40
0.0282391319
  9
$TDUSRTIMER
 40
0.028238044
  9
$USRTIMER
 70
     1
  9
$ANGBASE
 50
0.0
  9
$ANGDIR
 70
     0
  9
$PDMODE
 70
     0
  9
$PDSIZE
 40
0.0
  9
$PLINEWID
 40
0.0
  9
$COORDS
 70
     1
  9
$SPLFRAME
 70
     0
  9
$SPLINETYPE
 70
     6
  9
$SPLINESEGS
 70
     8
  9
$ATTDIA
 70
     0
  9
$ATTREQ
 70
     1
  9
$HANDLING
 70
     1
  9
$HANDSEED
  5
38A2
  9
$SURFTAB1
 70
     6
  9
$SURFTAB2
 70
     6
  9
$SURFTYPE
 70
     6
  9
$SURFU
 70
     6
  9
$SURFV
 70
     6
  9
$UCSNAME
  2

  9
$UCSORG
 10
0.0
 20
0.0
 30
0.0
  9
$UCSXDIR
 10
1.0
 20
0.0
 30
0.0
  9
$UCSYDIR
 10
0.0
 20
1.0
 30
0.0
  9
$PUCSNAME
  2

  9
$PUCSORG
 10
0.0
 20
0.0
 30
0.0
  9
$PUCSXDIR
 10
1.0
 20
0.0
 30
0.0
  9
$PUCSYDIR
 10
0.0
 20
1.0
 30
0.0
  9
$USERI1
 70
     0
  9
$USERI2
 70
     0
  9
$USERI3
 70
     0
  9
$USERI4
 70
     0
  9
$USERI5
 70
     0
  9
$USERR1
 40
0.0
  9
$USERR2
 40
0.0
  9
$USERR3
 40
0.0
  9
$USERR4
 40
0.0
  9
$USERR5
 40
0.0
  9
$WORLDVIEW
 70
     1
  9
$SHADEDGE
 70
     3
  9
$SHADEDIF
 70
    70
  9
$TILEMODE
 70
     1
  9
$MAXACTVP
 70
    48
  9
$PLIMCHECK
 70
     0
  9
$PEXTMIN
 10
0.0
 20
0.0
 30
0.0
  9
$PEXTMAX
 10
0.0
 20
0.0
 30
0.0
  9
$PLIMMIN
 10
0.0
 20
0.0
  9
$PLIMMAX
 10
12.0
 20
9.0
  9
$UNITMODE
 70
     0
  9
$VISRETAIN
 70
     1
  9
$PLINEGEN
 70
     0
  9
$PSLTSCALE
 70
     1
  0
ENDSEC
  0
SECTION
  2
TABLES
  0
TABLE
  2
VPORT
 70
     1
  0
VPORT
  2
*ACTIVE
 70
     0
 10
0.0
 20
0.0
 11
1.0
 21
1.0
 12
149.581957672817
 22
88.500517510689008
 13
0.0
 23
0.0
 14
10.0
 24
10.0
 15
10.0
 25
10.0
 16
0.0
 26
0.0
 36
1.0
 17
0.0
 27
0.0
 37
0.0
 40
223.79534011870319
 41
1.9048751486325799
 42
50.0
 43
0.0
 44
0.0
 50
0.0
 51
0.0
 71
     0
 72
  1000
 73
     1
 74
     3
 75
     0
 76
     0
 77
     0
 78
     0
  0
ENDTAB
  0
TABLE
  2
LTYPE
 70
     2
  0
LTYPE
  2
CONTINUOUS
 70
     0
  3
Solid line
 72
    65
 73
     0
 40
0.0
  0
ENDTAB
  0
TABLE
  2
LAYER
 70
     1
  0
LAYER
  2
0
 70
     0
 62
     7
  6
CONTINUOUS
  0
ENDTAB
  0
TABLE
  2
STYLE
 70
     1
  0
STYLE
  2
STANDARD
 70
     0
 40
0.0
 41
1.0
 50
0.0
 71
     0
 42
2.5
  3
txt
  4

  0
ENDTAB
  0
TABLE
  2
VIEW
 70
     0
  0
ENDTAB
  0
TABLE
  2
UCS
 70
     0
  0
ENDTAB
  0
TABLE
  2
APPID
 70
     8
  0
APPID
  2
ACAD
 70
     0
  0
APPID
  2
ACAD_PSEXT
 70
     0
  0
APPID
  2
ACADANNOPO
 70
     0
  0
APPID
  2
ACADANNOTATIVE
 70
     0
  0
APPID
  2
ACAD_DSTYLE_DIMJAG
 70
     0
  0
APPID
  2
ACAD_DSTYLE_DIMTALN
 70
     0
  0
APPID
  2
ACAD_MLEADERVER
 70
     0
  0
APPID
  2
ACAD_EXEMPT_FROM_CAD_STANDARDS
 70
     0
  0
ENDTAB
  0
TABLE
  2
DIMSTYLE
 70
     2
  0
DIMSTYLE
  2
ISO-25
 70
     0
  3

  4

  5

  6

  7

 40
1.0
 41
2.5
 42
0.625
 43
3.75
 44
1.25
 45
0.0
 46
0.0
 47
0.0
 48
0.0
140
2.5
141
2.5
142
0.0
143
0.03937007874016
144
1.0
145
0.0
146
1.0
147
0.625
 71
     0
 72
     0
 73
     0
 74
     0
 75
     0
 76
     0
 77
     1
 78
     8
170
     0
171
     3
172
     1
173
     0
174
     0
175
     0
176
     0
177
     0
178
     0
  0
ENDTAB
  0
ENDSEC
  0
SECTION
  2
BLOCKS
  0
BLOCK
  8
0
  2
$MODEL_SPACE
 70
     0
 10
0.0
 20
0.0
 30
0.0
  3
$MODEL_SPACE
  1

  0
ENDBLK
  5
21
  8
0
  0
BLOCK
 67
     1
  8
0
  2
$PAPER_SPACE
 70
     0
 10
0.0
 20
0.0
 30
0.0
  3
$PAPER_SPACE
  1

  0
ENDBLK
  5
D5
 67
     1
  8
0
  0
ENDSEC
  0
SECTION
  2
ENTITIES
  0
LINE
  5
1EC
  8
0
 10
113.095252906572
 20
185.0471309488436
 30
0.0
 11
113.095252906572
 21
44.234058853018738
 31
0.0
  0
ARC
  5
1922
  8
0
 10
100.18152206096811
 20
154.30932257667351
 30
0.0
 40
27.41118568935083
 50
100.4750655036257
 51
109.5249344963749
  0
ARC
  5
1923
  8
0
 10
93.086985155722374
 20
180.78649476322269
 30
0.0
 40
2.1642359999999989
 50
12.737532751813379
 51
197.262467248185
  0
ARC
  5
1924
  8
0
 10
93.086985155722374
 20
180.78649476322269
 30
0.0
 40
4.3284719999999988
 50
38.594833205483809
 51
171.40516679451491
  0
ARC
  5
1925
  8
0
 10
86.268785448555434
 20
177.92730006945851
 30
0.0
 40
4.3284719999999988
 50
54.096066304616137
 51
188.10771434248221
  0
ARC
  5
1926
  8
0
 10
100.18152206096811
 20
154.30932257667351
 30
0.0
 40
27.41118568935083
 50
115.9762986027571
 51
125.0261675955059
  0
ARC
  5
1927
  8
0
 10
86.268785448555434
 20
177.92730006945851
 30
0.0
 40
2.1642359999999989
 50
28.238765850944489
 51
212.76370034731781
  0
ARC
  5
1928
  8
0
 10
80.402616715085131
 20
173.28741532106361
 30
0.0
 40
2.1642359999999989
 50
43.921232637520312
 51
228.44616713389459
  0
ARC
  5
1929
  8
0
 10
80.402616715085131
 20
173.28741532106361
 30
0.0
 40
4.3284719999999988
 50
68.577218642355874
 51
163.3946017429289
  0
ARC
  5
192A
  8
0
 10
100.18152206096811
 20
154.30932257667351
 30
0.0
 40
27.41118568935083
 50
131.65876538933301
 51
140.70863438208349
  0
ARC
  5
192B
  8
0
 10
100.42131665708661
 20
181.7194593776409
 30
0.0
 40
2.1642359999999989
 50
357.2362996526802
 51
181.76123414905641
  0
ARC
  5
192C
  8
0
 10
100.42131665708661
 20
181.7194593776409
 30
0.0
 40
4.3284719999999988
 50
21.892285657518499
 51
155.9039336953856
  0
ARC
  5
192D
  8
0
 10
107.82151017735541
 20
180.634285681634
 30
0.0
 40
4.3284719999999988
 50
46.605398257067762
 51
141.42278135764519
  0
ARC
  5
192E
  8
0
 10
100.18152206096811
 20
154.30932257667351
 30
0.0
 40
27.41118568935083
 50
84.973832404493734
 51
94.023701397243954
  0
ARC
  5
192F
  8
0
 10
100.18152206096821
 20
154.30932257667351
 30
0.0
 40
27.41118568935083
 50
69.291365617917634
 51
78.341234610666604
  0
ARC
  5
1930
  8
0
 10
107.82151017735541
 20
180.634285681634
 30
0.0
 40
2.1642359999999989
 50
341.55383286610578
 51
166.07876736247761
  0
ARC
  5
1931
  8
0
 10
75.251943219443532
 20
170.31367259184711
 30
0.0
 40
4.3284719999999988
 50
76.605398257068543
 51
171.42278135764471
  0
ARC
  5
1932
  8
0
 10
75.251943219443532
 20
170.31367259184711
 30
0.0
 40
2.1642359999999989
 50
11.553832866106379
 51
196.07876736247849
  0
ARC
  5
1933
  8
0
 10
68.300600789966367
 20
167.5533638199733
 30
0.0
 40
4.3284719999999988
 50
51.892285657516609
 51
185.90393369538401
  0
ARC
  5
1934
  8
0
 10
81.798000978521216
 20
143.69559173106961
 30
0.0
 40
27.41118568935083
 50
99.29136561791816
 51
108.3412346106669
  0
ARC
  5
1935
  8
0
 10
62.415365697217489
 20
163.07822701237319
 30
0.0
 40
4.3284719999999988
 50
68.594833205485656
 51
201.40516679451611
  0
ARC
  5
1936
  8
0
 10
62.415365697217489
 20
163.07822701237319
 30
0.0
 40
2.1642359999999989
 50
42.737532751813021
 51
227.2624672481887
  0
ARC
  5
1937
  8
0
 10
68.300600789966367
 20
167.5533638199733
 30
0.0
 40
2.1642359999999989
 50
27.236299652681179
 51
211.76123414905379
  0
ARC
  5
1938
  8
0
 10
81.798000978521216
 20
143.69559173106961
 30
0.0
 40
27.41118568935083
 50
114.9738324044948
 51
124.0237013972437
  0
ARC
  5
1939
  8
0
 10
81.798000978521145
 20
143.69559173106961
 30
0.0
 40
27.41118568935083
 50
130.47506550362559
 51
139.52493449637501
  0
ARC
  5
193A
  8
0
 10
57.94022888961738
 20
157.19299191962421
 30
0.0
 40
4.3284719999999988
 50
84.096066304616031
 51
218.1077143424821
  0
ARC
  5
193B
  8
0
 10
57.94022888961738
 20
157.19299191962421
 30
0.0
 40
2.1642359999999989
 50
58.23876585094613
 51
242.76370034731889
  0
ARC
  5
193C
  8
0
 10
55.179920117743613
 20
150.24164949014701
 30
0.0
 40
4.3284719999999988
 50
98.577218642356939
 51
193.3946017429314
  0
ARC
  5
193D
  8
0
 10
81.798000978521188
 20
143.69559173106961
 30
0.0
 40
27.41118568935083
 50
145.97629860275799
 51
155.02616759550551
  0
ARC
  5
193E
  8
0
 10
55.179920117743613
 20
150.24164949014701
 30
0.0
 40
2.1642359999999989
 50
73.921232637521442
 51
258.4461671338936
  0
ARC
  5
193F
  8
0
 10
81.798000978521188
 20
143.69559173106961
 30
0.0
 40
27.41118568935083
 50
161.65876538933119
 51
170.7086343820832
  0
ARC
  5
1940
  8
0
 10
52.206177388527053
 20
145.0909759945055
 30
0.0
 40
4.3284719999999988
 50
106.6053982570679
 51
201.42278135764411
  0
ARC
  5
1941
  8
0
 10
52.206177388527053
 20
145.0909759945055
 30
0.0
 40
2.1642359999999989
 50
41.553832866105282
 51
226.07876736247971
  0
ARC
  5
1942
  8
0
 10
47.566292640132097
 20
139.22480726103521
 30
0.0
 40
4.3284719999999988
 50
81.892285657516169
 51
215.90393369538381
  0
ARC
  5
1943
  8
0
 10
71.18427013291732
 20
125.31207064862269
 30
0.0
 40
27.41118568935083
 50
129.2913656179187
 51
138.34123461066741
  0
ARC
  5
1944
  8
0
 10
44.707097946367988
 20
132.4066075538683
 30
0.0
 40
4.3284719999999988
 50
98.594833205485045
 51
231.40516679451491
  0
ARC
  5
1945
  8
0
 10
44.707097946367988
 20
132.4066075538683
 30
0.0
 40
2.1642359999999989
 50
72.737532751813191
 51
257.26246724818651
  0
ARC
  5
1946
  8
0
 10
47.566292640132097
 20
139.22480726103521
 30
0.0
 40
2.1642359999999989
 50
57.236299652682163
 51
241.7612341490555
  0
ARC
  5
1947
  8
0
 10
71.18427013291732
 20
125.31207064862269
 30
0.0
 40
27.41118568935083
 50
144.97383240449361
 51
154.02370139724309
  0
ARC
  5
1948
  8
0
 10
71.184270132917263
 20
125.31207064862259
 30
0.0
 40
27.41118568935083
 50
160.47506550362479
 51
169.52493449637581
  0
ARC
  5
1949
  8
0
 10
43.774133331949962
 20
125.0722760525039
 30
0.0
 40
4.3284719999999988
 50
114.0960663046162
 51
248.10771434248301
  0
ARC
  5
194A
  8
0
 10
43.774133331949962
 20
125.0722760525039
 30
0.0
 40
2.1642359999999989
 50
88.238765850945114
 51
272.76370034731798
  0
ARC
  5
194B
  8
0
 10
44.85930702795681
 20
117.67208253223519
 30
0.0
 40
4.3284719999999988
 50
128.577218642357
 51
223.39460174293049
  0
ARC
  5
194C
  8
0
 10
71.184270132917291
 20
125.31207064862269
 30
0.0
 40
27.41118568935083
 50
175.97629860275589
 51
185.02616759550779
  0
ARC
  5
194D
  8
0
 10
44.85930702795681
 20
117.67208253223519
 30
0.0
 40
2.1642359999999989
 50
103.9212326375205
 51
288.44616713389388
  0
ARC
  5
194E
  8
0
 10
71.184270132917291
 20
125.31207064862259
 30
0.0
 40
27.41118568935083
 50
191.65876538933341
 51
200.70863438208241
  0
ARC
  5
194F
  8
0
 10
44.859307027956717
 20
111.7245970738022
 30
0.0
 40
4.3284719999999988
 50
136.60539825706769
 51
231.42278135764531
  0
ARC
  5
1950
  8
0
 10
44.859307027956717
 20
111.7245970738022
 30
0.0
 40
2.1642359999999989
 50
71.553832866106049
 51
256.07876736247948
  0
ARC
  5
1951
  8
0
 10
43.774133331949891
 20
104.3244035535334
 30
0.0
 40
4.3284719999999988
 50
111.89228565751699
 51
245.90393369538381
  0
ARC
  5
1952
  8
0
 10
71.184270132917234
 20
104.0846089574149
 30
0.0
 40
27.41118568935083
 50
159.29136561791759
 51
168.34123461066659
  0
ARC
  5
1953
  8
0
 10
44.707097946367988
 20
96.990072052169126
 30
0.0
 40
4.3284719999999988
 50
128.59483320548509
 51
261.40516679451491
  0
ARC
  5
1954
  8
0
 10
44.707097946367988
 20
96.990072052169126
 30
0.0
 40
2.1642359999999989
 50
102.7375327518134
 51
287.26246724818668
  0
ARC
  5
1955
  8
0
 10
43.774133331949891
 20
104.3244035535334
 30
0.0
 40
2.1642359999999989
 50
87.23629965268195
 51
271.76123414905493
  0
ARC
  5
1956
  8
0
 10
71.184270132917263
 20
104.0846089574148
 30
0.0
 40
27.41118568935083
 50
174.9738324044921
 51
184.023701397244
  0
ARC
  5
1957
  8
0
 10
71.184270132917234
 20
104.0846089574148
 30
0.0
 40
27.41118568935083
 50
190.47506550362411
 51
199.5249344963751
  0
ARC
  5
1958
  8
0
 10
47.566292640132147
 20
90.171872345002114
 30
0.0
 40
4.3284719999999988
 50
144.0960663046161
 51
278.1077143424838
  0
ARC
  5
1959
  8
0
 10
47.566292640132147
 20
90.171872345002114
 30
0.0
 40
2.1642359999999989
 50
118.2387658509445
 51
302.76370034731781
  0
ARC
  5
195A
  8
0
 10
52.206177388527131
 20
84.305703611531811
 30
0.0
 40
4.3284719999999988
 50
158.5772186423558
 51
253.39460174293049
  0
ARC
  5
195B
  8
0
 10
71.184270132917234
 20
104.0846089574148
 30
0.0
 40
27.41118568935083
 50
205.97629860275691
 51
215.02616759550639
  0
ARC
  5
195C
  8
0
 10
52.206177388527131
 20
84.305703611531811
 30
0.0
 40
2.1642359999999989
 50
133.92123263752029
 51
318.44616713389468
  0
ARC
  5
195D
  8
0
 10
71.184270132917263
 20
104.0846089574148
 30
0.0
 40
27.41118568935083
 50
221.6587653893348
 51
230.70863438208119
  0
ARC
  5
195E
  8
0
 10
55.179920117743642
 20
79.15503011589027
 30
0.0
 40
4.3284719999999988
 50
166.60539825706849
 51
261.42278135764491
  0
ARC
  5
195F
  8
0
 10
55.179920117743642
 20
79.15503011589027
 30
0.0
 40
2.1642359999999989
 50
101.5538328661064
 51
286.07876736248011
  0
ARC
  5
1960
  8
0
 10
57.940228889617472
 20
72.203687686413133
 30
0.0
 40
4.3284719999999988
 50
141.8922856575179
 51
275.9039336953839
  0
ARC
  5
1961
  8
0
 10
81.798000978521145
 20
85.701087874967953
 30
0.0
 40
27.41118568935083
 50
189.29136561791671
 51
198.34123461066869
  0
ARC
  5
1962
  8
0
 10
62.415365697217631
 20
66.31845259366419
 30
0.0
 40
4.3284719999999988
 50
158.59483320548381
 51
291.40516679451582
  0
ARC
  5
1963
  8
0
 10
62.415365697217631
 20
66.31845259366419
 30
0.0
 40
2.1642359999999989
 50
132.7375327518136
 51
317.26246724818691
  0
ARC
  5
1964
  8
0
 10
57.940228889617472
 20
72.203687686413133
 30
0.0
 40
2.1642359999999989
 50
117.2362996526811
 51
301.76123414905447
  0
ARC
  5
1965
  8
0
 10
81.798000978521188
 20
85.701087874967953
 30
0.0
 40
27.41118568935083
 50
204.97383240449449
 51
214.02370139724189
  0
ARC
  5
1966
  8
0
 10
81.798000978521145
 20
85.701087874967897
 30
0.0
 40
27.41118568935083
 50
220.47506550362499
 51
229.52493449637501
  0
ARC
  5
1967
  8
0
 10
68.300600789966552
 20
61.843315786064117
 30
0.0
 40
4.3284719999999988
 50
174.09606630461599
 51
308.10771434248272
  0
ARC
  5
1968
  8
0
 10
68.300600789966552
 20
61.843315786064117
 30
0.0
 40
2.1642359999999989
 50
148.23876585094609
 51
332.76370034731889
  0
ARC
  5
1969
  8
0
 10
75.251943219443675
 20
59.083007014190343
 30
0.0
 40
4.3284719999999988
 50
188.57721864235521
 51
283.39460174292981
  0
ARC
  5
196A
  8
0
 10
81.798000978521145
 20
85.701087874967897
 30
0.0
 40
27.41118568935083
 50
235.97629860275919
 51
245.0261675955073
  0
ARC
  5
196B
  8
0
 10
75.251943219443675
 20
59.083007014190343
 30
0.0
 40
2.1642359999999989
 50
163.9212326375214
 51
348.4461671338936
  0
ARC
  5
196C
  8
0
 10
81.798000978521188
 20
85.701087874967897
 30
0.0
 40
27.41118568935083
 50
251.6587653893331
 51
260.70863438208181
  0
ARC
  5
196D
  8
0
 10
80.402616715085145
 20
56.109264284973747
 30
0.0
 40
4.3284719999999988
 50
196.60539825706761
 51
291.42278135764411
  0
ARC
  5
196E
  8
0
 10
80.402616715085145
 20
56.109264284973747
 30
0.0
 40
2.1642359999999989
 50
131.55383286610521
 51
316.0787673624796
  0
ARC
  5
196F
  8
0
 10
86.268785448555519
 20
51.469379536578813
 30
0.0
 40
4.3284719999999988
 50
171.8922856575177
 51
305.90393369538378
  0
ARC
  5
1970
  8
0
 10
100.18152206096801
 20
75.087357029364
 30
0.0
 40
27.41118568935083
 50
219.29136561791819
 51
228.3412346106669
  0
ARC
  5
1971
  8
0
 10
93.086985155722516
 20
48.610184842814661
 30
0.0
 40
4.3284719999999988
 50
188.59483320548509
 51
321.40516679451622
  0
ARC
  5
1972
  8
0
 10
93.086985155722516
 20
48.610184842814661
 30
0.0
 40
2.1642359999999989
 50
162.737532751815
 51
347.26246724818662
  0
ARC
  5
1973
  8
0
 10
86.268785448555519
 20
51.469379536578813
 30
0.0
 40
2.1642359999999989
 50
147.23629965268219
 51
331.7612341490555
  0
ARC
  5
1974
  8
0
 10
100.18152206096801
 20
75.087357029364
 30
0.0
 40
27.41118568935083
 50
234.973832404494
 51
244.0237013972428
  0
ARC
  5
1975
  8
0
 10
100.18152206096811
 20
75.087357029363943
 30
0.0
 40
27.41118568935083
 50
250.4750655036251
 51
259.52493449637433
  0
ARC
  5
1976
  8
0
 10
100.42131665708681
 20
47.677220228396664
 30
0.0
 40
4.3284719999999988
 50
204.09606630461769
 51
338.10771434248511
  0
ARC
  5
1977
  8
0
 10
100.42131665708681
 20
47.677220228396664
 30
0.0
 40
2.1642359999999989
 50
178.23876585094669
 51
2.763700347319729
  0
ARC
  5
1978
  8
0
 10
107.82151017735551
 20
48.762393924403483
 30
0.0
 40
4.3284719999999988
 50
218.57721864235469
 51
313.39460174293163
  0
ARC
  5
1979
  8
0
 10
100.18152206096801
 20
75.087357029364
 30
0.0
 40
27.41118568935083
 50
265.97629860275771
 51
275.02616759550631
  0
ARC
  5
197A
  8
0
 10
107.82151017735551
 20
48.762393924403483
 30
0.0
 40
2.1642359999999989
 50
193.92123263752219
 51
18.446167133894189
  0
ARC
  5
197B
  8
0
 10
100.18152206096811
 20
75.087357029364
 30
0.0
 40
27.41118568935083
 50
281.65876538933338
 51
290.70863438208232
  0
ARC
  5
1F9F
  8
0
 10
134.22220297640169
 20
153.60316101523421
 30
0.0
 40
34.0480046601445
 50
135.28719015897821
 51
151.5626539830121
  0
ARC
  5
1FA0
  8
0
 10
136.6214465157046
 20
156.4397531161317
 30
0.0
 40
36.212240660144509
 50
142.71523903583261
 51
157.86188738279489
  0
ARC
  5
1FA1
  8
0
 10
138.7297815004311
 20
159.65443881830629
 30
0.0
 40
38.376476660144498
 50
149.77283923683541
 51
163.9525911524471
  0
LINE
  5
1FA2
  8
0
 10
95.004813744794291
 20
179.0198498803525
 30
0.0
 11
96.737554271128616
 21
169.97574607123121
 31
0.0
  0
LINE
  5
1FA3
  8
0
 10
92.309419318917264
 20
178.29762112065549
 30
0.0
 11
95.330873909505598
 21
169.5988272043256
 31
0.0
  0
ARC
  5
1FA4
  8
0
 10
142.1525904615763
 20
168.59241693329929
 30
0.0
 40
42.921372260144501
 50
165.20641759186961
 51
177.68830040935359
  0
ARC
  5
1FA5
  8
0
 10
143.1231836400458
 20
176.92175767464741
 30
0.0
 40
45.626667260144501
 50
176.8608554868018
 51
188.47167857353219
  0
ARC
  5
1FA6
  8
0
 10
140.71984966835021
 20
163.82957369112779
 30
0.0
 40
40.648924460144492
 50
157.50856297544399
 51
170.77731357420299
  0
ARC
  5
1FA7
  8
0
 10
60.314174968811997
 20
142.284938088507
 30
0.0
 40
40.648924460144492
 50
39.222686425799857
 51
52.491437024555189
  0
ARC
  5
1FA8
  8
0
 10
51.686734703785682
 20
152.4214350234069
 30
0.0
 40
45.626667260144501
 50
21.528321426467709
 51
33.139144513199483
  0
ARC
  5
1FA9
  8
0
 10
56.691963423754231
 20
145.6933109338575
 30
0.0
 40
42.921372260144501
 50
32.311699590646683
 51
44.79358240813059
  0
ARC
  5
1FAA
  8
0
 10
64.125191993903456
 20
139.66419930837679
 30
0.0
 40
38.376476660144498
 50
46.04740884755288
 51
60.227160763164377
  0
LINE
  5
1FAD
  8
0
 10
109.71313490657199
 20
168.26634756998649
 30
0.0
 11
109.71313490657199
 21
173.99630413546129
 31
0.0
  0
ARC
  5
1FAE
  8
0
 10
134.22220297640169
 20
153.60316101523421
 30
0.0
 40
31.88376866014449
 50
140.23733551327169
 51
146.70932457346041
  0
ARC
  5
1FAF
  8
0
 10
100.18152206096811
 20
75.087357029363943
 30
0.0
 40
25.246949689350831
 50
287.58641627089622
 51
292.95060976119782
  0
ARC
  5
1FB0
  8
0
 10
134.22220297640169
 20
75.793518590803245
 30
0.0
 40
34.0480046601445
 50
208.43734601698779
 51
224.71280984102179
  0
ARC
  5
1FB2
  8
0
 10
71.184270132917234
 20
104.0846089574148
 30
0.0
 40
25.246949689350831
 50
227.586416270896
 51
232.950609761197
  0
ARC
  5
1FB3
  8
0
 10
88.816164442016586
 20
74.957595303248837
 30
0.0
 40
34.0480046601445
 50
148.4373460169881
 51
164.71280984102339
  0
LINE
  5
1FB4
  8
0
 10
109.71313490657199
 20
84.418365504507634
 30
0.0
 11
109.71313490657199
 21
81.170139861968536
 31
0.0
  0
ARC
  5
1FB5
  8
0
 10
110.795252906572
 20
114.6983398030187
 30
0.0
 40
30.299303999999999
 50
257.04671309767252
 51
267.95328690232787
  0
ARC
  5
1FB6
  8
0
 10
110.795252906572
 20
114.6983398030187
 30
0.0
 40
33.545658000000003
 50
241.8485716452285
 51
253.15142835477161
  0
LINE
  5
1FB7
  8
0
 10
101.9129731496102
 20
85.73020335616593
 30
0.0
 11
101.0722704905307
 21
82.59265831842292
 31
0.0
  0
LINE
  5
1FB8
  8
0
 10
104.0034645961947
 20
85.170057861269399
 30
0.0
 11
103.16276193711521
 21
82.032512823526446
 31
0.0
  0
ARC
  5
1FB9
  8
0
 10
111.6311761941264
 20
69.292301268633622
 30
0.0
 40
31.88376866014449
 50
142.52861142442859
 51
154.28629896280461
  0
LINE
  5
1FBA
  8
0
 10
70.391872796823122
 20
84.045406130371703
 30
0.0
 11
70.596271163757294
 21
90.239924635465897
 31
0.0
  0
ARC
  5
1FBB
  8
0
 10
65.389214372186927
 20
115.53426309057321
 30
0.0
 40
34.0480046601445
 50
283.09813331764371
 51
298.81159031862973
  0
ARC
  5
1FBC
  8
0
 10
111.6311761941265
 20
69.292301268633622
 30
0.0
 40
34.0480046601445
 50
151.18840968137209
 51
166.90186668235609
  0
LINE
  5
1FBD
  8
0
 10
64.945056350255783
 20
86.977194241642323
 30
0.0
 11
59.982768401973182
 21
84.112215958905054
 31
0.0
  0
LINE
  5
1FBE
  8
0
 10
63.559036581832892
 20
83.703065292983027
 30
0.0
 11
64.945056350255726
 21
86.977194241642465
 31
0.0
  0
LINE
  5
1FBF
  8
0
 10
65.888606550873902
 20
83.654405634406899
 30
0.0
 11
68.055418299004813
 21
88.772962550029845
 31
0.0
  0
ARC
  5
1FC0
  8
0
 10
110.795252906572
 20
114.6983398030187
 30
0.0
 40
35.709894000000013
 50
226.74769045860199
 51
238.26349842406299
  0
LINE
  5
1FC1
  8
0
 10
92.011363975151099
 20
84.327925810066986
 30
0.0
 11
90.161681635531622
 21
81.124182019983223
 31
0.0
  0
ARC
  5
1FC2
  8
0
 10
53.284057859305562
 20
116.0481838526696
 30
0.0
 40
40.648924460144492
 50
277.5085629754463
 51
290.77731357420089
  0
ARC
  5
1FC3
  8
0
 10
57.894864807354878
 20
116.41230170039979
 30
0.0
 40
38.376476660144498
 50
269.77283923683609
 51
283.9525911524463
  0
ARC
  5
1FC4
  8
0
 10
61.733031782983872
 20
116.1937728950263
 30
0.0
 40
36.212240660144509
 50
262.71523903583193
 51
277.86188738279287
  0
ARC
  5
1FC5
  8
0
 10
65.389214372186927
 20
115.53426309057321
 30
0.0
 40
34.0480046601445
 50
255.28719015897681
 51
271.562653983014
  0
ARC
  5
1FC6
  8
0
 10
81.798000978521145
 20
85.701087874967826
 30
0.0
 40
25.246949689350831
 50
208.92774366784619
 51
215.94869945848779
  0
ARC
  5
1FC7
  8
0
 10
48.442944220728961
 20
114.9075521555559
 30
0.0
 40
42.921372260144501
 50
285.20641759187077
 51
297.68830040935222
  0
ARC
  5
1FC8
  8
0
 10
65.389214372186927
 20
115.53426309057321
 30
0.0
 40
31.88376866014449
 50
260.23733551326973
 51
266.7093245734585
  0
ARC
  5
1FC9
  8
0
 10
81.798000978521145
 20
85.701087874967826
 30
0.0
 40
25.246949689350831
 50
187.04939023880269
 51
192.4135837291056
  0
ARC
  5
1FCA
  8
0
 10
81.798000978521145
 20
85.701087874967826
 30
0.0
 40
25.246949689350831
 50
197.6739261000013
 51
203.2183867890279
  0
ARC
  5
1FCB
  8
0
 10
60.314174968811997
 20
87.111741517530433
 30
0.0
 40
40.648924460144492
 50
307.50856297544482
 51
320.77731357420009
  0
ARC
  5
1FCC
  8
0
 10
64.125191993903456
 20
89.732480297660658
 30
0.0
 40
38.376476660144498
 50
299.77283923683558
 51
313.95259115244721
  0
ARC
  5
1FCD
  8
0
 10
67.558406501451358
 20
91.462312288563155
 30
0.0
 40
36.212240660144509
 50
292.71523903583119
 51
307.86188738279373
  0
ARC
  5
1FCE
  8
0
 10
71.054508406802142
 20
92.719251338463323
 30
0.0
 40
34.0480046601445
 50
285.2871901589765
 51
301.56265398301412
  0
LINE
  5
1FCF
  8
0
 10
82.904752073361564
 20
83.125856892823322
 30
0.0
 11
90.161681635531622
 21
81.124182019983181
 31
0.0
  0
LINE
  5
1FD0
  8
0
 10
80.566848971361566
 20
76.47438161979926
 30
0.0
 11
87.611319696410959
 21
76.706825563736373
 31
0.0
  0
LINE
  5
1FD1
  8
0
 10
80.142319233924908
 20
74.294959693269846
 30
0.0
 11
86.336837739019231
 21
74.499358060204045
 31
0.0
  0
LINE
  5
1FD2
  8
0
 10
86.33683773901916
 20
74.499358060204045
 30
0.0
 11
84.869875653583037
 21
71.958505195451423
 31
0.0
  0
LINE
  5
1FD3
  8
0
 10
82.023894544774308
 20
81.123766829144259
 30
0.0
 11
89.043558927063316
 21
79.187536679819672
 31
0.0
  0
ARC
  5
1FD4
  8
0
 10
81.798000978521145
 20
85.701087874967826
 30
0.0
 40
25.246949689350831
 50
246.7816132109721
 51
252.32607389999711
  0
ARC
  5
1FD5
  8
0
 10
111.6311761941265
 20
69.292301268633622
 30
0.0
 40
34.0480046601445
 50
178.437346016986
 51
194.7128098410214
  0
ARC
  5
1FD6
  8
0
 10
112.2906859985796
 20
65.636118679430481
 30
0.0
 40
36.212240660144509
 50
172.1381126172071
 51
187.2847609641681
  0
ARC
  5
1FD7
  8
0
 10
112.509214803953
 20
61.797951703801488
 30
0.0
 40
38.376476660144498
 50
166.0474088475537
 51
180.22716076316229
  0
ARC
  5
1FD8
  8
0
 10
81.798000978521145
 20
85.701087874967826
 30
0.0
 40
25.246949689350831
 50
257.58641627089588
 51
262.9506097611972
  0
ARC
  5
1FD9
  8
0
 10
100.18152206096811
 20
75.087357029363943
 30
0.0
 40
25.246949689350831
 50
217.049390238803
 51
222.41358372910341
  0
ARC
  5
1FDA
  8
0
 10
100.18152206096811
 20
75.087357029363943
 30
0.0
 40
25.246949689350831
 50
227.6739261000038
 51
233.21838678902699
  0
ARC
  5
1FDB
  8
0
 10
112.1450969562229
 20
57.187144755752207
 30
0.0
 40
40.648924460144492
 50
159.22268642579721
 51
172.49143702455549
  0
ARC
  5
1FDC
  8
0
 10
81.798000978521145
 20
85.701087874967897
 30
0.0
 40
9.3084823458983124
 50
200.95486181813521
 51
249.04513818186311
  0
LINE
  5
1FDD
  8
0
 10
64.959576416892901
 20
66.889497647159729
 30
0.0
 11
70.982225635425962
 21
73.855551037155266
 31
0.0
  0
LINE
  5
1FDE
  8
0
 10
62.986410750712977
 20
68.86266331333961
 30
0.0
 11
69.952464140708514
 21
74.885312531872685
 31
0.0
  0
ARC
  5
1FDF
  8
0
 10
40.744226952710072
 20
111.5834401341763
 30
0.0
 40
45.626667260144501
 50
296.86085548680057
 51
308.4716785735323
  0
ARC
  5
1FE0
  8
0
 10
81.798000978521145
 20
85.701087874967826
 30
0.0
 40
25.246949689350831
 50
234.051300541514
 51
241.0722563321527
  0
ARC
  5
1FE1
  8
0
 10
107.68035323772961
 20
44.647313849156681
 30
0.0
 40
45.626667260144501
 50
141.52832142646761
 51
153.13914451319931
  0
ARC
  5
1FE2
  8
0
 10
81.798000978521145
 20
85.701087874967826
 30
0.0
 40
25.246949689350831
 50
221.8320116268778
 51
228.16798837312049
  0
ARC
  5
1FE3
  8
0
 10
81.798000978521145
 20
85.701087874967826
 30
0.0
 40
16.040503085884819
 50
232.16315883075279
 51
236.72855957914899
  0
ARC
  5
1FE4
  8
0
 10
111.0044652591092
 20
52.346031117175627
 30
0.0
 40
42.921372260144501
 50
152.31169959064781
 51
164.7935824081292
  0
ARC
  5
1FE5
  8
0
 10
81.798000978521145
 20
85.701087874967826
 30
0.0
 40
16.040503085884819
 50
204.0341245307641
 51
208.51791880021611
  0
ARC
  5
1FE6
  8
0
 10
65.389214372186927
 20
115.53426309057321
 30
0.0
 40
31.88376866014449
 50
270.89745458003478
 51
279.02717976178798
  0
ARC
  5
1FE7
  8
0
 10
81.798000978521145
 20
85.701087874967826
 30
0.0
 40
16.040503085884819
 50
195.18712215082149
 51
199.59383086608901
  0
ARC
  5
1FE8
  8
0
 10
81.798000978521145
 20
85.701087874967826
 30
0.0
 40
16.040503085884819
 50
213.27144042084871
 51
217.83684116924721
  0
ARC
  5
1FE9
  8
0
 10
81.798000978521145
 20
85.701087874967826
 30
0.0
 40
16.040503085884819
 50
222.39819007155651
 51
227.60180992844519
  0
ARC
  5
1FEA
  8
0
 10
111.6311761941264
 20
69.292301268633622
 30
0.0
 40
31.88376866014449
 50
170.97282023821029
 51
179.10254541996349
  0
ARC
  5
1FEB
  8
0
 10
81.798000978521145
 20
85.701087874967826
 30
0.0
 40
16.040503085884819
 50
250.40616913391119
 51
254.81287784917839
  0
ARC
  5
1FEC
  8
0
 10
81.798000978521145
 20
85.701087874967826
 30
0.0
 40
16.040503085884819
 50
241.48208119978381
 51
245.96587546923581
  0
LINE
  5
1FED
  8
0
 10
79.751318737960162
 20
69.791693447320583
 30
0.0
 11
84.869875653583094
 21
71.95850519545148
 31
0.0
  0
LINE
  5
1FEE
  8
0
 10
79.799978396536247
 20
67.462123478279636
 30
0.0
 11
83.074107345195671
 21
68.848143246702463
 31
0.0
  0
ARC
  5
1FEF
  8
0
 10
71.054508406802114
 20
92.719251338463394
 30
0.0
 40
31.88376866014449
 50
290.23733551326922
 51
296.70932457345879
  0
ARC
  5
1FF0
  8
0
 10
111.6311761941264
 20
69.292301268633622
 30
0.0
 40
31.88376866014449
 50
183.29067542654141
 51
189.7626644867301
  0
LINE
  5
1FF1
  8
0
 10
84.948390700980497
 20
67.766025246702469
 30
0.0
 11
82.083412418243086
 21
62.803737298419897
 31
0.0
  0
LINE
  5
1FF2
  8
0
 10
83.074107345195671
 20
68.848143246702463
 30
0.0
 11
80.209129062458288
 21
63.885855298419912
 31
0.0
  0
LINE
  5
1FF3
  8
0
 10
85.385126845708569
 20
64.237536517685982
 30
0.0
 11
84.948390700980426
 21
67.766025246702469
 31
0.0
  0
ARC
  5
1FF4
  8
0
 10
111.6311761941264
 20
69.292301268633622
 30
0.0
 40
31.88376866014449
 50
158.2176899013252
 51
166.98193826401149
  0
ARC
  5
1FF5
  8
0
 10
134.22220297640169
 20
75.793518590803245
 30
0.0
 40
31.88376866014449
 50
200.9728202382116
 51
209.10254541996329
  0
LINE
  5
1FF6
  8
0
 10
106.36374046099149
 20
60.28607617591436
 30
0.0
 11
109.71313490657199
 21
64.721868652825734
 31
0.0
  0
ARC
  5
1FF7
  8
0
 10
100.18152206096811
 20
75.087357029363943
 30
0.0
 40
25.246949689350831
 50
264.05130054151329
 51
271.07225633215342
  0
ARC
  5
1FF8
  8
0
 10
143.1231836400458
 20
52.47492193138995
 30
0.0
 40
45.626667260144501
 50
171.52832142646761
 51
183.13914451319809
  0
LINE
  5
1FF9
  8
0
 10
95.00481374479422
 20
50.376829725684871
 30
0.0
 11
96.737554271128573
 21
59.420933534806231
 31
0.0
  0
LINE
  5
1FFA
  8
0
 10
92.309419318917236
 20
51.099058485381967
 30
0.0
 11
95.330873909505556
 21
59.797852401711843
 31
0.0
  0
ARC
  5
1FFB
  8
0
 10
100.18152206096811
 20
75.087357029363943
 30
0.0
 40
25.246949689350831
 50
251.83201162687729
 51
258.16798837312137
  0
ARC
  5
1FFC
  8
0
 10
100.18152206096811
 20
75.087357029363943
 30
0.0
 40
16.040503085884819
 50
234.03412453076399
 51
238.5179188002158
  0
ARC
  5
1FFD
  8
0
 10
51.686734703785653
 20
76.975244582630495
 30
0.0
 40
45.626667260144501
 50
326.86085548680052
 51
338.4716785735323
  0
ARC
  5
1FFE
  8
0
 10
56.691963423754231
 20
83.703368672179877
 30
0.0
 40
42.921372260144501
 50
315.20641759186941
 51
327.6883004093533
  0
ARC
  5
1FFF
  8
0
 10
100.18152206096811
 20
75.087357029363943
 30
0.0
 40
25.246949689350831
 50
238.9277436678465
 51
245.9486994584866
  0
ARC
  5
2000
  8
0
 10
100.18152206096811
 20
75.087357029363943
 30
0.0
 40
16.040503085884819
 50
243.2714404208505
 51
247.8368411692482
  0
ARC
  5
2001
  8
0
 10
100.18152206096811
 20
75.087357029363943
 30
0.0
 40
16.040503085884819
 50
252.3981900715568
 51
257.60180992844431
  0
ARC
  5
2002
  8
0
 10
136.6214465157046
 20
72.956926489905584
 30
0.0
 40
36.212240660144509
 50
202.138112617205
 51
217.28476096416739
  0
ARC
  5
2003
  8
0
 10
138.7297815004311
 20
69.742240787731092
 30
0.0
 40
38.376476660144498
 50
196.04740884755279
 51
210.22716076316451
  0
ARC
  5
2004
  8
0
 10
140.71984966835021
 20
65.567105914909561
 30
0.0
 40
40.648924460144492
 50
189.22268642579701
 51
202.49143702455601
  0
ARC
  5
2005
  8
0
 10
142.15259046157621
 20
60.804262672738069
 30
0.0
 40
42.921372260144501
 50
182.3116995906463
 51
194.79358240813031
  0
ARC
  5
2006
  8
0
 10
100.18152206096811
 20
75.087357029363943
 30
0.0
 40
25.246949689350831
 50
276.7816132109723
 51
282.32607389999811
  0
ARC
  5
2007
  8
0
 10
100.18152206096811
 20
75.087357029363943
 30
0.0
 40
16.040503085884819
 50
280.40616913391182
 51
284.81287784917919
  0
ARC
  5
2008
  8
0
 10
100.18152206096811
 20
75.087357029363943
 30
0.0
 40
16.040503085884819
 50
271.48208119978528
 51
275.96587546923672
  0
ARC
  5
2009
  8
0
 10
100.18152206096811
 20
75.087357029363943
 30
0.0
 40
16.040503085884819
 50
262.16315883075231
 51
266.72855957914908
  0
ARC
  5
200A
  8
0
 10
134.22220297640169
 20
75.793518590803245
 30
0.0
 40
31.88376866014449
 50
213.29067542653951
 51
219.7626644867282
  0
LINE
  5
200B
  8
0
 10
107.57066594597831
 20
58.2929392321196
 30
0.0
 11
109.71313490657199
 21
61.130332036050937
 31
0.0
  0
LINE
  5
200C
  8
0
 10
109.71313490657199
 20
61.130332036050881
 30
0.0
 11
109.71313490657199
 21
55.400375470576222
 31
0.0
  0
ARC
  5
200D
  8
0
 10
110.795252906572
 20
114.6983398030187
 30
0.0
 40
35.709894000000013
 50
241.7365015759367
 51
253.25230954139849
  0
ARC
  5
200E
  8
0
 10
71.054508406802114
 20
92.719251338463394
 30
0.0
 40
34.0480046601445
 50
313.0981333176432
 51
328.81159031862808
  0
ARC
  5
200F
  8
0
 10
71.054508406802114
 20
92.719251338463394
 30
0.0
 40
31.88376866014449
 50
325.71370103719443
 51
337.4713885755715
  0
ARC
  5
2010
  8
0
 10
100.18152206096811
 20
75.087357029363943
 30
0.0
 40
9.3084823458983124
 50
230.95486181813661
 51
279.04513818186342
  0
LINE
  5
2011
  8
0
 10
91.131366169094065
 20
67.950430487112513
 30
0.0
 11
88.211121094803985
 21
73.417240060204037
 31
0.0
  0
LINE
  5
2012
  8
0
 10
88.211121094803985
 20
73.41724006020398
 30
0.0
 11
86.744159009367806
 21
70.876387195451414
 31
0.0
  0
LINE
  5
2013
  8
0
 10
96.104498970881096
 20
72.994326073378858
 30
0.0
 11
90.917842282848156
 21
78.105418679819664
 31
0.0
  0
LINE
  5
2014
  8
0
 10
92.806536054315075
 20
69.407794987659216
 30
0.0
 11
89.485603052195714
 21
75.624707563736365
 31
0.0
  0
ARC
  5
2015
  8
0
 10
100.18152206096811
 20
75.087357029363943
 30
0.0
 40
16.040503085884819
 50
225.1871221508209
 51
229.59383086608929
  0
ARC
  5
2016
  8
0
 10
71.054508406802114
 20
92.719251338463394
 30
0.0
 40
31.88376866014449
 50
300.89745458003512
 51
309.02717976178889
  0
LINE
  5
2017
  8
0
 10
87.426923448079435
 20
65.360181001740102
 30
0.0
 11
86.744159009367877
 21
70.876387195451557
 31
0.0
  0
ARC
  5
2018
  8
0
 10
71.054508406802114
 20
92.719251338463394
 30
0.0
 40
31.88376866014449
 50
313.01806173598749
 51
321.78231009867619
  0
LINE
  5
2019
  8
0
 10
90.917842282848198
 20
78.105418679819664
 30
0.0
 11
89.485603052195756
 21
75.624707563736365
 31
0.0
  0
LINE
  5
201A
  8
0
 10
89.043558927063316
 20
79.187536679819743
 30
0.0
 11
87.61131969641086
 21
76.706825563736373
 31
0.0
  0
LINE
  5
201B
  8
0
 10
93.885647330935853
 20
83.245807810066978
 30
0.0
 11
92.035964991316405
 21
80.042064019983172
 31
0.0
  0
LINE
  5
201C
  8
0
 10
97.397931062397916
 20
74.758216102089762
 30
0.0
 11
92.035964991316405
 21
80.042064019983243
 31
0.0
  0
ARC
  5
201D
  8
0
 10
134.22220297640169
 20
75.793518590803302
 30
0.0
 40
34.0480046601445
 50
181.1884096813707
 51
196.9018666823556
  0
LINE
  5
201E
  8
0
 10
102.6658121508066
 20
71.236227505530209
 30
0.0
 11
109.71313490657199
 21
73.069235199786235
 31
0.0
  0
LINE
  5
201F
  8
0
 10
103.728666274432
 20
66.481219015551332
 30
0.0
 11
109.71313490657199
 21
70.204756738481436
 31
0.0
  0
ARC
  5
2020
  8
0
 10
134.22220297640169
 20
75.793518590803245
 30
0.0
 40
31.88376866014449
 50
188.21768990132449
 51
196.9819382640103
  0
LINE
  5
2021
  8
0
 10
109.71313490657199
 20
73.069235199786235
 30
0.0
 11
109.71313490657199
 21
70.204756738481379
 31
0.0
  0
LINE
  5
2022
  8
0
 10
104.4507237004147
 20
64.381519392893694
 30
0.0
 11
109.71313490657199
 21
67.655792823697908
 31
0.0
  0
LINE
  5
2023
  8
0
 10
109.71313490657199
 20
67.655792823697908
 30
0.0
 11
109.71313490657199
 21
64.721868652825663
 31
0.0
  0
ARC
  5
2024
  8
0
 10
110.795252906572
 20
114.6983398030187
 30
0.0
 40
33.545658000000003
 50
256.84857164522782
 51
268.1514283547715
  0
LINE
  5
2025
  8
0
 10
102.4276121158384
 20
73.4105171256342
 30
0.0
 11
109.71313490657199
 21
75.305480616722718
 31
0.0
  0
ARC
  5
2026
  8
0
 10
110.795252906572
 20
114.6983398030187
 30
0.0
 40
35.709894000000013
 50
256.7476904586012
 51
268.26349842406211
  0
ARC
  5
2027
  8
0
 10
134.22220297640169
 20
75.793518590803245
 30
0.0
 40
31.88376866014449
 50
172.5286114244299
 51
184.28629896280799
  0
LINE
  5
2028
  8
0
 10
109.71313490657199
 20
79.004845295961658
 30
0.0
 11
109.71313490657199
 21
75.305480616722718
 31
0.0
  0
ARC
  5
2029
  8
0
 10
65.389214372186871
 20
113.8624165154643
 30
0.0
 40
34.0480046601445
 50
88.437346016986083
 51
104.7128098410231
  0
ARC
  5
202A
  8
0
 10
61.733031782983822
 20
113.2029067110111
 30
0.0
 40
36.212240660144509
 50
82.138112617207085
 51
97.284760964168044
  0
ARC
  5
202B
  8
0
 10
57.894864807354828
 20
112.9843779056377
 30
0.0
 40
38.376476660144498
 50
76.047408847553754
 51
90.227160763163937
  0
ARC
  5
202C
  8
0
 10
53.284057859305527
 20
113.3484957533678
 30
0.0
 40
40.648924460144492
 50
69.222686425799012
 51
82.491437024553747
  0
ARC
  5
202D
  8
0
 10
81.798000978521145
 20
143.69559173106961
 30
0.0
 40
25.246949689350831
 50
144.05130054151221
 51
151.0722563321537
  0
ARC
  5
202E
  8
0
 10
48.442944220728918
 20
114.4891274504815
 30
0.0
 40
42.921372260144501
 50
62.311699590647841
 51
74.793582408129268
  0
LINE
  5
202F
  8
0
 10
64.945056350255754
 20
142.41948536439509
 30
0.0
 11
59.982768401973267
 21
145.28446364713241
 31
0.0
  0
ARC
  5
2030
  8
0
 10
65.389214372186927
 20
113.8624165154643
 30
0.0
 40
31.88376866014449
 50
93.290675426541426
 51
99.762664486730245
  0
LINE
  5
2031
  8
0
 10
60.334449621239301
 20
140.1084658638822
 30
0.0
 11
63.862938350255781
 21
140.5452020086102
 31
0.0
  0
LINE
  5
2032
  8
0
 10
63.862938350255781
 20
140.5452020086102
 30
0.0
 11
58.900650401973238
 21
143.41018029134759
 31
0.0
  0
LINE
  5
2033
  8
0
 10
63.752705927251199
 20
113.6162218030187
 30
0.0
 11
60.818781756378939
 21
113.6162218030187
 31
0.0
  0
LINE
  5
2034
  8
0
 10
63.752705927251228
 20
115.78045780301871
 30
0.0
 11
60.818781756379003
 21
115.78045780301871
 31
0.0
  0
LINE
  5
2035
  8
0
 10
60.478432496447063
 20
108.35381059686139
 30
0.0
 11
63.752705927251228
 21
113.6162218030187
 31
0.0
  0
LINE
  5
2036
  8
0
 10
63.862938350255718
 20
88.851477597427248
 30
0.0
 11
58.900650401973238
 21
85.986499314689894
 31
0.0
  0
LINE
  5
2037
  8
0
 10
60.334449621239237
 20
89.288213742155321
 30
0.0
 11
63.862938350255781
 21
88.851477597427248
 31
0.0
  0
LINE
  5
2038
  8
0
 10
60.478432496447063
 20
121.042869009176
 30
0.0
 11
63.752705927251228
 21
115.78045780301871
 31
0.0
  0
ARC
  5
2039
  8
0
 10
61.664019018462952
 20
144.6229365647969
 30
0.0
 40
40.648924460144492
 50
247.5085629754455
 51
260.7773135742014
  0
ARC
  5
203A
  8
0
 10
65.839153891284482
 20
142.63286839687791
 30
0.0
 40
38.376476660144498
 50
239.77283923683731
 51
253.9525911524469
  0
ARC
  5
203B
  8
0
 10
71.184270132917234
 20
104.0846089574148
 30
0.0
 40
25.246949689350831
 50
204.05130054151201
 51
211.07225633215489
  0
LINE
  5
203C
  8
0
 10
47.195971588935258
 20
96.212506215363973
 30
0.0
 11
55.894765505265177
 21
99.23396080595235
 31
0.0
  0
LINE
  5
203D
  8
0
 10
46.473742829238162
 20
98.907900641241042
 30
0.0
 11
55.517846638359529
 21
100.6406411675753
 31
0.0
  0
ARC
  5
203E
  8
0
 10
73.072157686183772
 20
55.589821600232362
 30
0.0
 40
45.626667260144501
 50
111.5283214264676
 51
123.13914451319719
  0
ARC
  5
203F
  8
0
 10
48.571835034943327
 20
147.02627053649249
 30
0.0
 40
45.626667260144501
 50
266.86085548680182
 51
278.4716785735323
  0
ARC
  5
2040
  8
0
 10
56.901175776291389
 20
146.05567735802299
 30
0.0
 40
42.921372260144501
 50
255.20641759186969
 51
267.68830040935211
  0
ARC
  5
2041
  8
0
 10
71.184270132917234
 20
104.0846089574148
 30
0.0
 40
25.246949689350831
 50
191.83201162687689
 51
198.1679883731224
  0
ARC
  5
2042
  8
0
 10
71.184270132917234
 20
104.0846089574148
 30
0.0
 40
25.246949689350831
 50
178.92774366784661
 51
185.94869945848669
  0
ARC
  5
2043
  8
0
 10
71.184270132917234
 20
104.0846089574148
 30
0.0
 40
16.040503085884819
 50
211.48208119978409
 51
215.9658754692355
  0
ARC
  5
2044
  8
0
 10
83.208654621083724
 20
64.21726186525872
 30
0.0
 40
40.648924460144492
 50
129.22268642579809
 51
142.49143702455291
  0
ARC
  5
2045
  8
0
 10
79.800281775733183
 20
60.595050320200912
 30
0.0
 40
42.921372260144501
 50
122.3116995906456
 51
134.79358240813059
  0
ARC
  5
2046
  8
0
 10
87.559225392116417
 20
71.461493397898025
 30
0.0
 40
36.212240660144509
 50
142.1381126172067
 51
157.28476096416881
  0
ARC
  5
2047
  8
0
 10
85.829393401213935
 20
68.028278890350109
 30
0.0
 40
38.376476660144498
 50
136.04740884755279
 51
150.2271607631651
  0
ARC
  5
2048
  8
0
 10
71.184270132917234
 20
104.0846089574148
 30
0.0
 40
25.246949689350831
 50
216.78161321097301
 51
222.32607389999791
  0
ARC
  5
2049
  8
0
 10
71.184270132917234
 20
104.0846089574148
 30
0.0
 40
16.040503085884819
 50
220.40616913391059
 51
224.81287784917961
  0
ARC
  5
204A
  8
0
 10
88.816164442016628
 20
74.957595303248894
 30
0.0
 40
31.88376866014449
 50
153.29067542654121
 51
159.76266448673101
  0
ARC
  5
204B
  8
0
 10
71.184270132917234
 20
104.0846089574148
 30
0.0
 40
16.040503085884819
 50
174.03412453076319
 51
178.51791880021449
  0
ARC
  5
204C
  8
0
 10
71.184270132917234
 20
104.0846089574148
 30
0.0
 40
16.040503085884819
 50
183.27144042084919
 51
187.83684116924749
  0
ARC
  5
204D
  8
0
 10
71.184270132917234
 20
104.0846089574148
 30
0.0
 40
16.040503085884819
 50
192.39819007155549
 51
197.60180992844499
  0
ARC
  5
204E
  8
0
 10
71.184270132917234
 20
104.0846089574148
 30
0.0
 40
16.040503085884819
 50
202.16315883075171
 51
206.7285595791495
  0
ARC
  5
204F
  8
0
 10
69.053839593458989
 20
140.5245334121513
 30
0.0
 40
36.212240660144509
 50
232.71523903583039
 51
247.86188738279341
  0
ARC
  5
2050
  8
0
 10
71.890431694356636
 20
138.12528987284841
 30
0.0
 40
34.0480046601445
 50
225.28719015897701
 51
241.56265398301349
  0
ARC
  5
2051
  8
0
 10
71.890431694356579
 20
91.271389733189011
 30
0.0
 40
34.0480046601445
 50
118.4373460169864
 51
134.71280984102299
  0
ARC
  5
2052
  8
0
 10
69.053839593458932
 20
88.872146193886167
 30
0.0
 40
36.212240660144509
 50
112.1381126172065
 51
127.28476096416961
  0
ARC
  5
2053
  8
0
 10
65.839153891284425
 20
86.763811209159627
 30
0.0
 40
38.376476660144498
 50
106.0474088475531
 51
120.2271607631626
  0
ARC
  5
2054
  8
0
 10
61.664019018462888
 20
84.77374304124055
 30
0.0
 40
40.648924460144492
 50
99.222686425798443
 51
112.4914370245544
  0
ARC
  5
2055
  8
0
 10
56.901175776291389
 20
83.341002248014462
 30
0.0
 40
42.921372260144501
 50
92.311699590647905
 51
104.79358240813031
  0
ARC
  5
2056
  8
0
 10
48.57183503494327
 20
82.37040906954492
 30
0.0
 40
45.626667260144501
 50
81.528321426467627
 51
93.139144513198147
  0
ARC
  5
2057
  8
0
 10
71.184270132917234
 20
125.31207064862259
 30
0.0
 40
25.246949689350831
 50
197.5864162708946
 51
202.9506097611978
  0
ARC
  5
2058
  8
0
 10
71.184270132917234
 20
104.0846089574148
 30
0.0
 40
25.246949689350831
 50
157.04939023880209
 51
162.41358372910531
  0
ARC
  5
2059
  8
0
 10
71.184270132917234
 20
104.0846089574148
 30
0.0
 40
25.246949689350831
 50
167.67392610000351
 51
173.21838678902921
  0
ARC
  5
205A
  8
0
 10
71.184270132917234
 20
125.31207064862259
 30
0.0
 40
25.246949689350831
 50
186.7816132109707
 51
192.3260738999964
  0
ARC
  5
205B
  8
0
 10
71.184270132917234
 20
125.31207064862259
 30
0.0
 40
25.246949689350831
 50
174.05130054151331
 51
181.0722563321533
  0
LINE
  5
205C
  8
0
 10
56.382989279467687
 20
119.12985224859921
 30
0.0
 11
60.81878175637906
 21
115.78045780301861
 31
0.0
  0
ARC
  5
205D
  8
0
 10
71.890431694356593
 20
91.271389733189011
 30
0.0
 40
31.88376866014449
 50
123.2906754265417
 51
129.7626644867305
  0
LINE
  5
205E
  8
0
 10
54.389852335672913
 20
117.9229267636124
 30
0.0
 11
57.227245139604229
 21
115.78045780301861
 31
0.0
  0
LINE
  5
205F
  8
0
 10
57.227245139604229
 20
113.6162218030186
 30
0.0
 11
51.497288574129477
 21
113.6162218030187
 31
0.0
  0
LINE
  5
2060
  8
0
 10
57.2272451396042
 20
115.78045780301871
 30
0.0
 11
51.497288574129499
 21
115.78045780301871
 31
0.0
  0
LINE
  5
2061
  8
0
 10
54.389852335672913
 20
111.473752842425
 30
0.0
 11
57.227245139604229
 21
113.6162218030188
 31
0.0
  0
ARC
  5
2062
  8
0
 10
71.890431694356593
 20
138.12528987284841
 30
0.0
 40
31.88376866014449
 50
230.2373355132695
 51
236.70932457345819
  0
ARC
  5
2063
  8
0
 10
71.184270132917234
 20
104.0846089574148
 30
0.0
 40
16.040503085884819
 50
165.1871221508224
 51
169.5938308660898
  0
ARC
  5
2064
  8
0
 10
71.890431694356593
 20
138.12528987284841
 30
0.0
 40
31.88376866014449
 50
240.89745458003441
 51
249.0271797617886
  0
LINE
  5
2065
  8
0
 10
56.382989279467687
 20
110.2668273574382
 30
0.0
 11
60.81878175637906
 21
113.6162218030188
 31
0.0
  0
ARC
  5
2066
  8
0
 10
71.184270132917234
 20
125.31207064862259
 30
0.0
 40
16.040503085884819
 50
190.40616913391011
 51
194.8128778491774
  0
ARC
  5
2067
  8
0
 10
71.184270132917234
 20
125.31207064862259
 30
0.0
 40
16.040503085884819
 50
181.48208119978531
 51
185.96587546923669
  0
ARC
  5
2068
  8
0
 10
71.184270132917234
 20
125.31207064862259
 30
0.0
 40
16.040503085884819
 50
172.16315883075239
 51
176.7285595791507
  0
ARC
  5
2069
  8
0
 10
71.890431694356593
 20
91.271389733189011
 30
0.0
 40
31.88376866014449
 50
110.9728202382113
 51
119.10254541996549
  0
ARC
  5
206A
  8
0
 10
71.184270132917234
 20
125.31207064862259
 30
0.0
 40
25.246949689350831
 50
148.92774366784499
 51
155.94869945848799
  0
LINE
  5
206B
  8
0
 10
46.473742829238162
 20
130.4887789647965
 30
0.0
 11
55.5178466383596
 21
128.75603843846221
 31
0.0
  0
LINE
  5
206C
  8
0
 10
47.195971588935258
 20
133.18417339067349
 30
0.0
 11
55.894765505265177
 21
130.1627188000852
 31
0.0
  0
ARC
  5
206D
  8
0
 10
73.072157686183814
 20
173.80685800580511
 30
0.0
 40
45.626667260144501
 50
236.86085548680279
 51
248.47167857353239
  0
ARC
  5
206E
  8
0
 10
71.184270132917234
 20
125.31207064862259
 30
0.0
 40
25.246949689350831
 50
161.83201162687749
 51
168.16798837312311
  0
ARC
  5
206F
  8
0
 10
83.208654621083724
 20
165.17941774077869
 30
0.0
 40
40.648924460144492
 50
217.50856297544701
 51
230.77731357420191
  0
ARC
  5
2070
  8
0
 10
85.829393401213963
 20
161.3684007156873
 30
0.0
 40
38.376476660144498
 50
209.77283923683481
 51
223.9525911524471
  0
ARC
  5
2071
  8
0
 10
87.559225392116417
 20
157.93518620813941
 30
0.0
 40
36.212240660144509
 50
202.71523903583119
 51
217.86188738279321
  0
ARC
  5
2072
  8
0
 10
88.816164442016586
 20
154.4390843027885
 30
0.0
 40
34.0480046601445
 50
195.2871901589765
 51
211.5626539830119
  0
ARC
  5
2073
  8
0
 10
79.800281775733183
 20
168.80162928583661
 30
0.0
 40
42.921372260144501
 50
225.2064175918693
 51
237.68830040935441
  0
ARC
  5
2074
  8
0
 10
71.184270132917234
 20
125.31207064862259
 30
0.0
 40
16.040503085884819
 50
144.03412453076439
 51
148.5179188002158
  0
ARC
  5
2075
  8
0
 10
71.184270132917234
 20
125.31207064862259
 30
0.0
 40
16.040503085884819
 50
135.18712215082039
 51
139.59383086608941
  0
ARC
  5
2076
  8
0
 10
71.184270132917234
 20
125.31207064862259
 30
0.0
 40
16.040503085884819
 50
153.2714404208505
 51
157.8368411692482
  0
ARC
  5
2077
  8
0
 10
71.184270132917234
 20
125.31207064862259
 30
0.0
 40
16.040503085884819
 50
162.39819007155501
 51
167.6018099284444
  0
ARC
  5
2078
  8
0
 10
71.184270132917234
 20
125.31207064862259
 30
0.0
 40
25.246949689350831
 50
127.049390238803
 51
132.413583729104
  0
ARC
  5
2079
  8
0
 10
71.184270132917234
 20
125.31207064862259
 30
0.0
 40
25.246949689350831
 50
137.67392610000209
 51
143.21838678902699
  0
ARC
  5
207A
  8
0
 10
81.798000978521145
 20
143.69559173106961
 30
0.0
 40
25.246949689350831
 50
167.5864162708944
 51
172.95060976119731
  0
ARC
  5
207B
  8
0
 10
88.816164442016628
 20
154.43908430278859
 30
0.0
 40
31.88376866014449
 50
200.2373355132689
 51
206.70932457345879
  0
ARC
  5
207C
  8
0
 10
81.798000978521145
 20
143.69559173106961
 30
0.0
 40
25.246949689350831
 50
156.78161321097201
 51
162.32607389999859
  0
ARC
  5
207D
  8
0
 10
110.795252906572
 20
114.6983398030187
 30
0.0
 40
15.65210669545232
 50
94.914036714574237
 51
145.0859632854268
  0
ARC
  5
207E
  8
0
 10
110.795252906572
 20
114.6983398030187
 30
0.0
 40
17.81634269545232
 50
123.35618408491921
 51
146.64381591508001
  0
ARC
  5
207F
  8
0
 10
115.79690030413801
 20
125.88833998648489
 30
0.0
 40
7.7218264627020163
 50
145.22147089177349
 51
218.48206206211009
  0
ARC
  5
2080
  8
0
 10
110.795252906572
 20
114.6983398030187
 30
0.0
 40
30.299303999999999
 50
152.04671309767221
 51
162.9532869023277
  0
ARC
  5
2081
  8
0
 10
110.795252906572
 20
114.6983398030187
 30
0.0
 40
33.545658000000003
 50
151.8485716452285
 51
163.15142835477161
  0
LINE
  5
2082
  8
0
 10
70.855129205643038
 20
128.0956616471928
 30
0.0
 11
76.138977123536492
 21
133.45762771827441
 31
0.0
  0
ARC
  5
2083
  8
0
 10
110.795252906572
 20
114.6983398030187
 30
0.0
 40
35.709894000000013
 50
151.7365015759367
 51
163.25230954140039
  0
ARC
  5
2084
  8
0
 10
71.184270132917263
 20
125.31207064862259
 30
0.0
 40
9.3084823458983124
 50
140.95486181813661
 51
189.04513818186339
  0
ARC
  5
2085
  8
0
 10
88.816164442016628
 20
154.43908430278859
 30
0.0
 40
34.0480046601445
 50
223.09813331764499
 51
238.8115903186295
  0
ARC
  5
2086
  8
0
 10
88.730184854250766
 20
121.6622078399612
 30
0.0
 40
7.7218264627020163
 50
21.517937937888849
 51
95.006050010424545
  0
ARC
  5
2087
  8
0
 10
110.795252906572
 20
114.6983398030187
 30
0.0
 40
30.299303999999999
 50
212.04671309767261
 51
222.953286902326
  0
ARC
  5
2088
  8
0
 10
110.795252906572
 20
114.6983398030187
 30
0.0
 40
27.052949999999999
 50
182.80361418403851
 51
207.19638581596121
  0
ARC
  5
2089
  8
0
 10
110.795252906572
 20
114.6983398030187
 30
0.0
 40
33.545658000000003
 50
211.84857164523041
 51
223.151428354773
  0
ARC
  5
208A
  8
0
 10
88.204409418558114
 20
119.6999872005848
 30
0.0
 40
7.7218264627020163
 50
234.99394998957521
 51
308.48206206211188
  0
ARC
  5
208B
  8
0
 10
88.204409418558143
 20
109.69669240545269
 30
0.0
 40
7.7218264627020163
 50
51.517937937888078
 51
125.0060500104247
  0
ARC
  5
208C
  8
0
 10
110.795252906572
 20
114.6983398030187
 30
0.0
 40
27.052949999999999
 50
152.80361418403871
 51
177.19638581596141
  0
ARC
  5
208D
  8
0
 10
71.890431694356593
 20
138.12528987284841
 30
0.0
 40
31.88376866014449
 50
265.71370103719369
 51
277.47138857557161
  0
LINE
  5
208E
  8
0
 10
74.202331783372941
 20
94.820929179294893
 30
0.0
 11
71.721620667289557
 21
93.388689948642494
 31
0.0
  0
LINE
  5
208F
  8
0
 10
70.855129205642996
 20
101.3010179588446
 30
0.0
 11
76.138977123536492
 21
95.939051887763142
 31
0.0
  0
LINE
  5
2090
  8
0
 10
69.091239176932177
 20
100.0075858673278
 30
0.0
 11
74.202331783372941
 21
94.820929179294893
 31
0.0
  0
ARC
  5
2091
  8
0
 10
88.816164442016628
 20
74.957595303248894
 30
0.0
 40
31.88376866014449
 50
112.52861142442811
 51
124.2862989628056
  0
ARC
  5
2092
  8
0
 10
65.389214372186927
 20
115.53426309057321
 30
0.0
 40
31.88376866014449
 50
283.01806173598851
 51
291.78231009867659
  0
LINE
  5
2093
  8
0
 10
75.284449783373006
 20
92.946645823510053
 30
0.0
 11
72.803738667289608
 21
91.514406592857654
 31
0.0
  0
LINE
  5
2094
  8
0
 10
65.504708091212478
 20
96.709622950761826
 30
0.0
 11
71.721620667289613
 21
93.388689948642437
 31
0.0
  0
LINE
  5
2095
  8
0
 10
64.047343590665747
 20
95.034453065540774
 30
0.0
 11
69.514153163757285
 21
92.114207991250751
 31
0.0
  0
LINE
  5
2096
  8
0
 10
69.514153163757214
 20
92.114207991250751
 30
0.0
 11
66.973300299004677
 21
90.647245905814614
 31
0.0
  0
LINE
  5
2097
  8
0
 10
61.457094105293407
 20
91.330010344526187
 30
0.0
 11
66.973300299004805
 21
90.647245905814614
 31
0.0
  0
ARC
  5
2098
  8
0
 10
88.816164442016628
 20
74.957595303248894
 30
0.0
 40
31.88376866014449
 50
140.972820238211
 51
149.1025454199671
  0
LINE
  5
2099
  8
0
 10
70.596271163757223
 20
90.239924635465897
 30
0.0
 11
68.055418299004671
 21
88.772962550029774
 31
0.0
  0
LINE
  5
209A
  8
0
 10
72.571294723352494
 20
84.469935867808303
 30
0.0
 11
72.803738667289608
 21
91.514406592857654
 31
0.0
  0
ARC
  5
209B
  8
0
 10
88.816164442016628
 20
74.957595303248894
 30
0.0
 40
31.88376866014449
 50
128.21768990132369
 51
136.98193826401049
  0
ARC
  5
209C
  8
0
 10
88.816164442016586
 20
74.957595303248837
 30
0.0
 40
34.0480046601445
 50
121.1884096813705
 51
136.90186668235489
  0
ARC
  5
209D
  8
0
 10
71.890431694356593
 20
138.12528987284841
 30
0.0
 40
34.0480046601445
 50
253.0981333176444
 51
268.81159031862921
  0
ARC
  5
209E
  8
0
 10
71.184270132917234
 20
104.0846089574148
 30
0.0
 40
9.3084823458983124
 50
170.95486181813649
 51
219.04513818186339
  0
LINE
  5
209F
  8
0
 10
80.424838913620235
 20
95.914450871597765
 30
0.0
 11
77.2210951235365
 21
94.064768531978316
 31
0.0
  0
ARC
  5
20A0
  8
0
 10
110.795252906572
 20
114.6983398030187
 30
0.0
 40
35.709894000000013
 50
211.7365015759392
 51
223.25230954139741
  0
ARC
  5
20A1
  8
0
 10
65.389214372186927
 20
115.53426309057321
 30
0.0
 40
31.88376866014449
 50
295.71370103719312
 51
307.47138857557132
  0
LINE
  5
20A2
  8
0
 10
79.22276999637657
 20
86.807838969808316
 30
0.0
 11
77.2210951235365
 21
94.064768531978373
 31
0.0
  0
LINE
  5
20A3
  8
0
 10
77.220679932697578
 20
85.926981441221017
 30
0.0
 11
75.284449783372935
 21
92.946645823510053
 31
0.0
  0
LINE
  5
20A4
  8
0
 10
81.827116459719207
 20
105.816060046057
 30
0.0
 11
78.68957142197624
 21
104.97535738697739
 31
0.0
  0
ARC
  5
20A5
  8
0
 10
110.795252906572
 20
114.6983398030187
 30
0.0
 40
33.545658000000003
 50
196.84857164522839
 51
208.15142835477141
  0
LINE
  5
20A6
  8
0
 10
79.342720913620241
 20
97.788734227382619
 30
0.0
 11
76.138977123536492
 21
95.939051887763213
 31
0.0
  0
ARC
  5
20A7
  8
0
 10
110.795252906572
 20
114.6983398030187
 30
0.0
 40
35.709894000000013
 50
196.74769045859949
 51
208.2634984240633
  0
LINE
  5
20A8
  8
0
 10
84.030966938121523
 20
100.49549433165561
 30
0.0
 11
81.217921014458597
 21
98.871381510386044
 31
0.0
  0
LINE
  5
20A9
  8
0
 10
85.113084938121517
 20
98.621210975870781
 30
0.0
 11
82.300039014458605
 21
96.997098154601218
 31
0.0
  0
ARC
  5
20AA
  8
0
 10
110.795252906572
 20
114.6983398030187
 30
0.0
 40
30.299303999999999
 50
197.04671309767221
 51
207.95328690232779
  0
ARC
  5
20AB
  8
0
 10
88.816164442016628
 20
154.43908430278859
 30
0.0
 40
31.88376866014449
 50
235.7137010371944
 51
247.47138857557181
  0
ARC
  5
20AC
  8
0
 10
71.890431694356593
 20
91.271389733189011
 30
0.0
 40
31.88376866014449
 50
82.528611424428334
 51
94.286298962806299
  0
LINE
  5
20AD
  8
0
 10
75.101758399514964
 20
113.6162218030187
 30
0.0
 11
71.402393720276052
 21
113.6162218030187
 31
0.0
  0
LINE
  5
20AE
  8
0
 10
75.101758399514964
 20
115.78045780301871
 30
0.0
 11
71.402393720276081
 21
115.78045780301871
 31
0.0
  0
LINE
  5
20AF
  8
0
 10
69.507430229187548
 20
123.0659805937523
 30
0.0
 11
71.402393720276052
 21
115.78045780301861
 31
0.0
  0
LINE
  5
20B0
  8
0
 10
67.333140609083486
 20
122.8277805587841
 30
0.0
 11
69.166148303339554
 21
115.78045780301871
 31
0.0
  0
LINE
  5
20B1
  8
0
 10
62.578132119104673
 20
121.7649264351587
 30
0.0
 11
66.301669842034713
 21
115.78045780301861
 31
0.0
  0
ARC
  5
20B2
  8
0
 10
71.890431694356593
 20
138.12528987284841
 30
0.0
 40
31.88376866014449
 50
253.018061735988
 51
261.78231009867551
  0
LINE
  5
20B3
  8
0
 10
69.166148303339583
 20
113.6162218030186
 30
0.0
 11
66.301669842034713
 21
113.6162218030187
 31
0.0
  0
LINE
  5
20B4
  8
0
 10
69.166148303339554
 20
115.78045780301871
 30
0.0
 11
66.301669842034684
 21
115.78045780301871
 31
0.0
  0
LINE
  5
20B5
  8
0
 10
62.578132119104673
 20
107.6317531708787
 30
0.0
 11
66.301669842034713
 21
113.6162218030188
 31
0.0
  0
LINE
  5
20B6
  8
0
 10
69.507430229187548
 20
106.33069901228509
 30
0.0
 11
71.402393720276052
 21
113.6162218030188
 31
0.0
  0
LINE
  5
20B7
  8
0
 10
67.333140609083486
 20
106.5688990472533
 30
0.0
 11
69.166148303339554
 21
113.6162218030187
 31
0.0
  0
ARC
  5
20B8
  8
0
 10
71.890431694356593
 20
91.271389733189011
 30
0.0
 40
31.88376866014449
 50
98.217689901324405
 51
106.981938264012
  0
ARC
  5
20B9
  8
0
 10
71.890431694356636
 20
91.271389733189011
 30
0.0
 40
34.0480046601445
 50
91.188409681370715
 51
106.9018666823555
  0
ARC
  5
20BA
  8
0
 10
110.795252906572
 20
114.6983398030187
 30
0.0
 40
33.545658000000003
 50
166.84857164522771
 51
178.15142835476979
  0
ARC
  5
20BB
  8
0
 10
110.795252906572
 20
114.6983398030187
 30
0.0
 40
30.299303999999999
 50
167.04671309767241
 51
177.95328690232779
  0
ARC
  5
20BC
  8
0
 10
110.795252906572
 20
114.6983398030187
 30
0.0
 40
35.709894000000013
 50
166.747690458601
 51
178.2634984240637
  0
LINE
  5
20BD
  8
0
 10
80.515278608060939
 20
113.6162218030188
 30
0.0
 11
77.267052965521813
 21
113.6162218030188
 31
0.0
  0
LINE
  5
20BE
  8
0
 10
80.515278608060939
 20
115.78045780301871
 30
0.0
 11
77.267052965521813
 21
115.78045780301871
 31
0.0
  0
LINE
  5
20BF
  8
0
 10
81.266970964822718
 20
107.9065514926415
 30
0.0
 11
78.129425927079765
 21
107.065848833562
 31
0.0
  0
ARC
  5
20C0
  8
0
 10
110.795252906572
 20
114.6983398030187
 30
0.0
 40
33.545658000000003
 50
181.8485716452268
 51
193.15142835477221
  0
ARC
  5
20C1
  8
0
 10
110.795252906572
 20
114.6983398030187
 30
0.0
 40
35.709894000000013
 50
181.7365015759363
 51
193.252309541399
  0
ARC
  5
20C2
  8
0
 10
110.795252906572
 20
114.6983398030187
 30
0.0
 40
30.299303999999999
 50
182.04671309767201
 51
192.95328690232751
  0
LINE
  5
20C3
  8
0
 10
81.266970964822718
 20
121.4901281133959
 30
0.0
 11
78.129425927079765
 21
122.33083077247539
 31
0.0
  0
LINE
  5
20C4
  8
0
 10
81.827116459719207
 20
123.58061955998051
 30
0.0
 11
78.689571421976254
 21
124.42132221906
 31
0.0
  0
ARC
  5
20C5
  8
0
 10
98.603604780554761
 20
113.4348934183501
 30
0.0
 40
7.7218264627020163
 50
265.2214708917727
 51
338.4820620621112
  0
ARC
  5
20C6
  8
0
 10
115.79690030413801
 20
103.5083396195525
 30
0.0
 40
7.7218264627020163
 50
141.51793793788929
 51
214.77852910822631
  0
ARC
  5
20C7
  8
0
 10
93.731832251816826
 20
99.071364351947267
 30
0.0
 40
7.7218264627020163
 50
81.517937937889158
 51
155.00605001042391
  0
ARC
  5
20C8
  8
0
 10
103.8313848696295
 20
92.633271750697446
 30
0.0
 40
7.7218264627020163
 50
111.5179379378888
 51
185.00605001042459
  0
ARC
  5
20C9
  8
0
 10
110.795252906572
 20
114.6983398030187
 30
0.0
 40
15.65210669545232
 50
214.9140367145732
 51
265.08596328542569
  0
ARC
  5
20CA
  8
0
 10
110.795252906572
 20
114.6983398030187
 30
0.0
 40
17.81634269545232
 50
213.3561840849199
 51
236.64381591508069
  0
ARC
  5
20CB
  8
0
 10
110.795252906572
 20
114.6983398030187
 30
0.0
 40
30.299303999999999
 50
242.04671309767181
 51
252.9532869023277
  0
ARC
  5
20CC
  8
0
 10
110.795252906572
 20
114.6983398030187
 30
0.0
 40
27.052949999999999
 50
212.80361418403859
 51
237.19638581596141
  0
ARC
  5
20CD
  8
0
 10
110.795252906572
 20
114.6983398030187
 30
0.0
 40
30.299303999999999
 50
227.04671309767051
 51
237.95328690232731
  0
ARC
  5
20CE
  8
0
 10
110.795252906572
 20
114.6983398030187
 30
0.0
 40
33.545658000000003
 50
226.8485716452293
 51
238.15142835477141
  0
LINE
  5
20CF
  8
0
 10
88.618904770096435
 20
94.052337618231192
 30
0.0
 11
86.322062391432979
 21
91.755495239567736
 31
0.0
  0
LINE
  5
20D0
  8
0
 10
90.149250721784483
 20
92.521991666543116
 30
0.0
 11
87.852408343121027
 21
90.225149287879674
 31
0.0
  0
LINE
  5
20D1
  8
0
 10
94.718124079424058
 20
89.016171834568226
 30
0.0
 11
93.094011258154495
 21
86.203125910905342
 31
0.0
  0
LINE
  5
20D2
  8
0
 10
96.592407435208884
 20
87.934053834568232
 30
0.0
 11
94.968294613939293
 21
85.121007910905377
 31
0.0
  0
ARC
  5
20D3
  8
0
 10
88.730184854250766
 20
107.7344717660763
 30
0.0
 40
7.7218264627020163
 50
264.99394998957553
 51
338.4820620621112
  0
ARC
  5
20D4
  8
0
 10
95.168277455500515
 20
97.634919148263492
 30
0.0
 40
7.7218264627020163
 50
294.99394998957621
 51
8.482062062110959
  0
ARC
  5
20D5
  8
0
 10
115.79690030413811
 20
92.107496315004852
 30
0.0
 40
7.7218264627020163
 50
141.51793793788929
 51
215.0060500104247
  0
ARC
  5
20D6
  8
0
 10
110.795252906572
 20
114.6983398030187
 30
0.0
 40
27.052949999999999
 50
242.80361418403871
 51
267.19638581596149
  0
ARC
  5
20D7
  8
0
 10
110.795252906572
 20
114.6983398030187
 30
0.0
 40
17.81634269545232
 50
243.35618408491871
 51
266.64381591508169
  0
ARC
  5
20D8
  8
0
 10
103.60525217812079
 20
104.7717860042211
 30
0.0
 40
7.7218264627020163
 50
81.517937937889158
 51
154.77852910822909
  0
ARC
  5
20D9
  8
0
 10
103.60525217812079
 20
124.6248936018164
 30
0.0
 40
7.7218264627020163
 50
205.22147089177079
 51
278.48206206211267
  0
ARC
  5
20DA
  8
0
 10
110.795252906572
 20
114.6983398030187
 30
0.0
 40
17.81634269545232
 50
153.3561840849201
 51
176.6438159150799
  0
ARC
  5
20DB
  8
0
 10
110.795252906572
 20
114.6983398030187
 30
0.0
 40
15.65210669545232
 50
154.91403671457431
 51
205.08596328542569
  0
ARC
  5
20DC
  8
0
 10
110.795252906572
 20
114.6983398030187
 30
0.0
 40
17.81634269545232
 50
183.3561840849199
 51
206.64381591507981
  0
ARC
  5
20DD
  8
0
 10
93.731832251816797
 20
130.32531525409021
 30
0.0
 40
7.7218264627020163
 50
204.99394998957609
 51
278.48206206211091
  0
ARC
  5
20DE
  8
0
 10
110.795252906572
 20
114.6983398030187
 30
0.0
 40
6.46957367127448
 50
219.27768914946409
 51
260.72231085053591
  0
ARC
  5
20DF
  8
0
 10
110.795252906572
 20
114.6983398030187
 30
0.0
 40
6.46957367127448
 50
159.27768914946299
 51
200.7223108505369
  0
ARC
  5
20E0
  8
0
 10
98.603604780554804
 20
115.9617861876873
 30
0.0
 40
7.7218264627020163
 50
21.517937937888849
 51
94.778529108227218
  0
ARC
  5
20E1
  8
0
 10
110.795252906572
 20
114.6983398030187
 30
0.0
 40
6.46957367127448
 50
99.277689149464052
 51
140.72231085053591
  0
ARC
  5
20E2
  8
0
 10
67.558406501451358
 20
137.93436731747431
 30
0.0
 40
36.212240660144509
 50
52.138112617206268
 51
67.284760964168782
  0
LINE
  5
20E3
  8
0
 10
80.142319233924965
 20
155.10171991276761
 30
0.0
 11
86.336837739019231
 21
154.89732154583339
 31
0.0
  0
LINE
  5
20E4
  8
0
 10
86.336837739019231
 20
154.89732154583339
 30
0.0
 11
84.869875653583065
 21
157.4381744105861
 31
0.0
  0
LINE
  5
20E5
  8
0
 10
82.023894544774308
 20
148.27291277689321
 30
0.0
 11
89.043558927063387
 21
150.20914292621771
 31
0.0
  0
LINE
  5
20E6
  8
0
 10
80.566848971361566
 20
152.92229798623819
 30
0.0
 11
87.611319696410959
 21
152.68985404230119
 31
0.0
  0
LINE
  5
20E7
  8
0
 10
82.904752073361635
 20
146.27082271321419
 30
0.0
 11
90.161681635531664
 21
148.27249758605419
 31
0.0
  0
ARC
  5
20E8
  8
0
 10
110.795252906572
 20
114.6983398030187
 30
0.0
 40
30.299303999999999
 50
137.04671309767389
 51
147.95328690232731
  0
ARC
  5
20E9
  8
0
 10
110.795252906572
 20
114.6983398030187
 30
0.0
 40
33.545658000000003
 50
136.8485716452287
 51
148.15142835476951
  0
ARC
  5
20EA
  8
0
 10
111.6311761941264
 20
160.1043783374038
 30
0.0
 40
31.88376866014449
 50
205.71370103719531
 51
217.47138857557141
  0
ARC
  5
20EB
  8
0
 10
71.054508406802142
 20
136.67742826757419
 30
0.0
 40
34.0480046601445
 50
58.437346016985849
 51
74.712809841023457
  0
ARC
  5
20EC
  8
0
 10
81.798000978521145
 20
143.69559173106961
 30
0.0
 40
9.3084823458983124
 50
110.95486181813691
 51
159.04513818186479
  0
ARC
  5
20ED
  8
0
 10
111.6311761941264
 20
160.1043783374038
 30
0.0
 40
31.88376866014449
 50
193.0180617359884
 51
201.7823100986748
  0
ARC
  5
20EE
  8
0
 10
111.6311761941264
 20
160.1043783374038
 30
0.0
 40
34.0480046601445
 50
193.0981333176438
 51
208.81159031862791
  0
ARC
  5
20EF
  8
0
 10
65.389214372186927
 20
113.8624165154643
 30
0.0
 40
31.88376866014449
 50
68.217689901323396
 51
76.981938264011475
  0
ARC
  5
20F0
  8
0
 10
65.389214372186871
 20
113.8624165154643
 30
0.0
 40
34.0480046601445
 50
61.18840968137031
 51
76.901866682356314
  0
LINE
  5
20F1
  8
0
 10
75.284449783373006
 20
136.45003378252741
 30
0.0
 11
72.803738667289608
 21
137.8822730131798
 31
0.0
  0
LINE
  5
20F2
  8
0
 10
74.202331783372998
 20
134.5757504267425
 30
0.0
 11
71.721620667289642
 21
136.007989657395
 31
0.0
  0
LINE
  5
20F3
  8
0
 10
69.091239176932206
 20
129.38909373870959
 30
0.0
 11
74.202331783372998
 21
134.5757504267425
 31
0.0
  0
LINE
  5
20F4
  8
0
 10
70.596271163757351
 20
139.1567549705716
 30
0.0
 11
68.055418299004813
 21
140.62371705600771
 31
0.0
  0
LINE
  5
20F5
  8
0
 10
72.571294723352565
 20
144.92674373822919
 30
0.0
 11
72.803738667289608
 21
137.88227301317971
 31
0.0
  0
LINE
  5
20F6
  8
0
 10
70.391872796823122
 20
145.35127347566581
 30
0.0
 11
70.596271163757322
 21
139.15675497057151
 31
0.0
  0
LINE
  5
20F7
  8
0
 10
65.504708091212535
 20
132.68705665527571
 30
0.0
 11
71.721620667289685
 21
136.007989657395
 31
0.0
  0
ARC
  5
20F8
  8
0
 10
88.816164442016628
 20
154.43908430278859
 30
0.0
 40
31.88376866014449
 50
223.01806173598939
 51
231.78231009867631
  0
LINE
  5
20F9
  8
0
 10
64.047343590665832
 20
134.36222654049661
 30
0.0
 11
69.514153163757314
 21
137.28247161478669
 31
0.0
  0
LINE
  5
20FA
  8
0
 10
69.514153163757285
 20
137.28247161478669
 30
0.0
 11
66.97330029900472
 21
138.74943370022291
 31
0.0
  0
LINE
  5
20FB
  8
0
 10
61.457094105293407
 20
138.06666926151129
 30
0.0
 11
66.973300299004805
 21
138.74943370022291
 31
0.0
  0
ARC
  5
20FC
  8
0
 10
88.816164442016628
 20
154.43908430278859
 30
0.0
 40
31.88376866014449
 50
210.8974545800329
 51
219.02717976178889
  0
ARC
  5
20FD
  8
0
 10
65.389214372186927
 20
113.8624165154643
 30
0.0
 40
31.88376866014449
 50
80.972820238211909
 51
89.102545419965253
  0
LINE
  5
20FE
  8
0
 10
65.888606550873973
 20
145.74227397163051
 30
0.0
 11
68.055418299004813
 21
140.62371705600759
 31
0.0
  0
ARC
  5
20FF
  8
0
 10
81.798000978521145
 20
143.69559173106961
 30
0.0
 40
16.040503085884819
 50
160.40616913391091
 51
164.81287784917839
  0
LINE
  5
2100
  8
0
 10
63.559036581832949
 20
145.69361431305441
 30
0.0
 11
64.945056350255783
 21
142.419485364395
 31
0.0
  0
ARC
  5
2101
  8
0
 10
110.795252906572
 20
114.6983398030187
 30
0.0
 40
35.709894000000013
 50
136.74769045860251
 51
148.26349842406071
  0
LINE
  5
2102
  8
0
 10
79.222769996376584
 20
142.58884063622921
 30
0.0
 11
77.2210951235365
 21
135.33191107405909
 31
0.0
  0
LINE
  5
2103
  8
0
 10
77.220679932697607
 20
143.46969816481641
 30
0.0
 11
75.284449783373006
 21
136.45003378252741
 31
0.0
  0
ARC
  5
2104
  8
0
 10
65.389214372186927
 20
113.8624165154643
 30
0.0
 40
31.88376866014449
 50
52.528611424428632
 51
64.286298962806882
  0
LINE
  5
2105
  8
0
 10
80.424838913620306
 20
133.48222873443959
 30
0.0
 11
77.221095123536529
 21
135.33191107405909
 31
0.0
  0
LINE
  5
2106
  8
0
 10
79.342720913620283
 20
131.60794537865479
 30
0.0
 11
76.138977123536492
 21
133.4576277182743
 31
0.0
  0
LINE
  5
2107
  8
0
 10
85.113084938121574
 20
130.7754686301667
 30
0.0
 11
82.300039014458648
 21
132.39958145143629
 31
0.0
  0
LINE
  5
2108
  8
0
 10
84.030966938121551
 20
128.9011852743819
 30
0.0
 11
81.217921014458639
 21
130.52529809565141
 31
0.0
  0
ARC
  5
2109
  8
0
 10
81.798000978521145
 20
143.69559173106961
 30
0.0
 40
25.246949689350831
 50
107.6739261000029
 51
113.2183867890279
  0
ARC
  5
210A
  8
0
 10
112.1450969562229
 20
172.20953485028519
 30
0.0
 40
40.648924460144492
 50
187.50856297544439
 51
200.77731357420279
  0
ARC
  5
210B
  8
0
 10
81.798000978521145
 20
143.69559173106961
 30
0.0
 40
25.246949689350831
 50
131.83201162687939
 51
138.1679883731222
  0
LINE
  5
210C
  8
0
 10
64.959576416892929
 20
162.50718195887771
 30
0.0
 11
70.982225635425991
 21
155.54112856888219
 31
0.0
  0
ARC
  5
210D
  8
0
 10
107.68035323772961
 20
184.74936575688071
 30
0.0
 40
45.626667260144501
 50
206.8608554868006
 51
218.47167857353239
  0
ARC
  5
210E
  8
0
 10
111.0044652591092
 20
177.0506484888619
 30
0.0
 40
42.921372260144501
 50
195.20641759187069
 51
207.68830040935219
  0
ARC
  5
210F
  8
0
 10
81.798000978521145
 20
143.69559173106961
 30
0.0
 40
16.040503085884819
 50
151.48208119978381
 51
155.96587546923581
  0
LINE
  5
2110
  8
0
 10
62.986410750713013
 20
160.53401629269791
 30
0.0
 11
69.952464140708585
 21
154.51136707416481
 31
0.0
  0
ARC
  5
2111
  8
0
 10
40.744226952710001
 20
117.8132394718611
 30
0.0
 40
45.626667260144501
 50
51.528321426467571
 51
63.139144513199398
  0
ARC
  5
2112
  8
0
 10
81.798000978521145
 20
143.69559173106961
 30
0.0
 40
16.040503085884819
 50
123.27144042085089
 51
127.83684116924719
  0
ARC
  5
2113
  8
0
 10
81.798000978521145
 20
143.69559173106961
 30
0.0
 40
16.040503085884819
 50
132.39819007155469
 51
137.60180992844349
  0
ARC
  5
2114
  8
0
 10
81.798000978521145
 20
143.69559173106961
 30
0.0
 40
16.040503085884819
 50
142.16315883075271
 51
146.72855957915129
  0
ARC
  5
2115
  8
0
 10
81.798000978521145
 20
143.69559173106961
 30
0.0
 40
25.246949689350831
 50
118.9277436678465
 51
125.948699458486
  0
ARC
  5
2116
  8
0
 10
112.509214803953
 20
167.59872790223591
 30
0.0
 40
38.376476660144498
 50
179.7728392368376
 51
193.95259115244619
  0
ARC
  5
2117
  8
0
 10
112.2906859985796
 20
163.7605609266069
 30
0.0
 40
36.212240660144509
 50
172.71523903583179
 51
187.86188738279279
  0
ARC
  5
2118
  8
0
 10
111.6311761941265
 20
160.10437833740389
 30
0.0
 40
34.0480046601445
 50
165.28719015897519
 51
181.56265398301389
  0
LINE
  5
2119
  8
0
 10
83.074107345195671
 20
160.54853635933489
 30
0.0
 11
80.209129062458317
 21
165.5108243076175
 31
0.0
  0
LINE
  5
211A
  8
0
 10
79.799978396536304
 20
161.93455612775779
 30
0.0
 11
83.074107345195728
 21
160.54853635933489
 31
0.0
  0
ARC
  5
211B
  8
0
 10
81.798000978521145
 20
143.69559173106961
 30
0.0
 40
16.040503085884819
 50
114.034124530764
 51
118.51791880021609
  0
ARC
  5
211C
  8
0
 10
81.798000978521145
 20
143.69559173106961
 30
0.0
 40
16.040503085884819
 50
105.18712215082149
 51
109.59383086608879
  0
LINE
  5
211D
  8
0
 10
79.751318737960233
 20
159.6049861587168
 30
0.0
 11
84.869875653583151
 21
157.43817441058599
 31
0.0
  0
ARC
  5
211E
  8
0
 10
111.6311761941264
 20
160.1043783374038
 30
0.0
 40
31.88376866014449
 50
180.89745458003631
 51
189.0271797617896
  0
ARC
  5
211F
  8
0
 10
81.798000978521145
 20
143.69559173106961
 30
0.0
 40
25.246949689350831
 50
97.049390238802729
 51
102.413583729104
  0
ARC
  5
2120
  8
0
 10
100.18152206096811
 20
154.30932257667351
 30
0.0
 40
25.246949689350831
 50
137.58641627089659
 51
142.950609761197
  0
ARC
  5
2121
  8
0
 10
111.6311761941264
 20
160.1043783374038
 30
0.0
 40
31.88376866014449
 50
170.2373355132699
 51
176.7093245734585
  0
ARC
  5
2122
  8
0
 10
71.054508406802142
 20
136.67742826757419
 30
0.0
 40
31.88376866014449
 50
63.290675426541192
 51
69.76266448673077
  0
LINE
  5
2123
  8
0
 10
85.385126845708626
 20
165.15914308835141
 30
0.0
 11
84.948390700980497
 21
161.63065435933501
 31
0.0
  0
LINE
  5
2124
  8
0
 10
84.948390700980525
 20
161.63065435933501
 30
0.0
 11
82.083412418243185
 21
166.59294230761751
 31
0.0
  0
ARC
  5
2125
  8
0
 10
110.795252906572
 20
114.6983398030187
 30
0.0
 40
35.709894000000013
 50
91.736501575937879
 51
103.2523095413987
  0
LINE
  5
2126
  8
0
 10
97.397931062397987
 20
154.63846350394769
 30
0.0
 11
92.035964991316405
 21
149.35461558605411
 31
0.0
  0
ARC
  5
2127
  8
0
 10
134.22220297640169
 20
153.60316101523421
 30
0.0
 40
31.88376866014449
 50
175.71370103719201
 51
187.47138857556999
  0
ARC
  5
2128
  8
0
 10
71.054508406802142
 20
136.67742826757419
 30
0.0
 40
31.88376866014449
 50
22.528611424428512
 51
34.286298962805631
  0
ARC
  5
2129
  8
0
 10
110.795252906572
 20
114.6983398030187
 30
0.0
 40
33.545658000000003
 50
106.8485716452283
 51
118.1514283547714
  0
ARC
  5
212A
  8
0
 10
110.795252906572
 20
114.6983398030187
 30
0.0
 40
35.709894000000013
 50
106.7476904586015
 51
118.263498424061
  0
ARC
  5
212B
  8
0
 10
103.8313848696296
 20
136.76340785534001
 30
0.0
 40
7.7218264627020163
 50
174.9939499895753
 51
248.4820620621112
  0
ARC
  5
212C
  8
0
 10
110.795252906572
 20
114.6983398030187
 30
0.0
 40
30.299303999999999
 50
107.0467130976723
 51
117.9532869023281
  0
ARC
  5
212D
  8
0
 10
110.795252906572
 20
114.6983398030187
 30
0.0
 40
33.545658000000003
 50
121.8485716452286
 51
133.1514283547707
  0
ARC
  5
212E
  8
0
 10
110.795252906572
 20
114.6983398030187
 30
0.0
 40
30.299303999999999
 50
122.04671309767259
 51
132.95328690232941
  0
ARC
  5
212F
  8
0
 10
110.795252906572
 20
114.6983398030187
 30
0.0
 40
27.052949999999999
 50
122.80361418403859
 51
147.19638581596129
  0
LINE
  5
2130
  8
0
 10
90.149250721784483
 20
136.87468793949429
 30
0.0
 11
87.852408343121027
 21
139.17153031815769
 31
0.0
  0
LINE
  5
2131
  8
0
 10
88.618904770096435
 20
135.34434198780619
 30
0.0
 11
86.322062391432951
 21
137.64118436646959
 31
0.0
  0
ARC
  5
2132
  8
0
 10
110.795252906572
 20
114.6983398030187
 30
0.0
 40
35.709894000000013
 50
121.736501575937
 51
133.25230954139801
  0
LINE
  5
2133
  8
0
 10
92.011363975151099
 20
145.06875379597039
 30
0.0
 11
90.161681635531622
 21
148.27249758605419
 31
0.0
  0
LINE
  5
2134
  8
0
 10
93.885647330935925
 20
146.1508717959704
 30
0.0
 11
92.035964991316476
 21
149.35461558605411
 31
0.0
  0
LINE
  5
2135
  8
0
 10
96.592407435208884
 20
141.46262577146919
 30
0.0
 11
94.968294613939293
 21
144.27567169513199
 31
0.0
  0
LINE
  5
2136
  8
0
 10
94.71812407942403
 20
140.38050777146921
 30
0.0
 11
93.094011258154495
 21
143.19355369513201
 31
0.0
  0
ARC
  5
2137
  8
0
 10
115.79690030413801
 20
137.2891832910326
 30
0.0
 40
7.7218264627020163
 50
144.99394998957521
 51
218.48206206211009
  0
ARC
  5
2138
  8
0
 10
95.168277455500558
 20
131.76176045777399
 30
0.0
 40
7.7218264627020163
 50
351.51793793788897
 51
65.006050010425355
  0
ARC
  5
2139
  8
0
 10
110.795252906572
 20
114.6983398030187
 30
0.0
 40
27.052949999999999
 50
92.803614184038523
 51
117.19638581596119
  0
ARC
  5
213A
  8
0
 10
110.795252906572
 20
114.6983398030187
 30
0.0
 40
17.81634269545232
 50
93.35618408491834
 51
116.6438159150813
  0
ARC
  5
213B
  8
0
 10
110.795252906572
 20
114.6983398030187
 30
0.0
 40
33.545658000000003
 50
91.848571645228503
 51
103.15142835477219
  0
LINE
  5
213C
  8
0
 10
104.0034645961948
 20
144.22662174476801
 30
0.0
 11
103.16276193711531
 21
147.36416678251101
 31
0.0
  0
LINE
  5
213D
  8
0
 10
101.9129731496102
 20
143.66647624987161
 30
0.0
 11
101.0722704905307
 21
146.80402128761449
 31
0.0
  0
LINE
  5
213E
  8
0
 10
109.71313490657199
 20
144.97831410152969
 30
0.0
 11
109.71313490657199
 21
148.2265397440689
 31
0.0
  0
ARC
  5
213F
  8
0
 10
110.795252906572
 20
114.6983398030187
 30
0.0
 40
30.299303999999999
 50
92.046713097672097
 51
102.95328690232751
  0
ARC
  5
2140
  8
0
 10
100.18152206096811
 20
154.30932257667351
 30
0.0
 40
9.3084823458983124
 50
80.954861818136621
 51
129.04513818186339
  0
ARC
  5
2141
  8
0
 10
71.054508406802142
 20
136.67742826757419
 30
0.0
 40
34.0480046601445
 50
31.188409681371859
 51
46.90186668235674
  0
LINE
  5
2142
  8
0
 10
87.426923448079492
 20
164.03649860429729
 30
0.0
 11
86.744159009367934
 21
158.52029241058591
 31
0.0
  0
LINE
  5
2143
  8
0
 10
91.131366169094107
 20
161.4462491189249
 30
0.0
 11
88.211121094804056
 21
155.9794395458334
 31
0.0
  0
LINE
  5
2144
  8
0
 10
96.104498970881167
 20
156.40235353265851
 30
0.0
 11
90.917842282848198
 21
151.2912609262178
 31
0.0
  0
LINE
  5
2145
  8
0
 10
92.806536054315117
 20
159.98888461837819
 30
0.0
 11
89.485603052195756
 21
153.771972042301
 31
0.0
  0
LINE
  5
2146
  8
0
 10
88.211121094804056
 20
155.9794395458334
 30
0.0
 11
86.744159009367934
 21
158.52029241058599
 31
0.0
  0
LINE
  5
2147
  8
0
 10
90.917842282848198
 20
151.2912609262178
 30
0.0
 11
89.485603052195785
 21
153.7719720423012
 31
0.0
  0
LINE
  5
2148
  8
0
 10
89.043558927063387
 20
150.20914292621771
 30
0.0
 11
87.611319696410959
 21
152.68985404230119
 31
0.0
  0
ARC
  5
2149
  8
0
 10
71.054508406802142
 20
136.67742826757419
 30
0.0
 40
31.88376866014449
 50
38.21768990132373
 51
46.981938264012392
  0
ARC
  5
214A
  8
0
 10
100.18152206096811
 20
154.30932257667351
 30
0.0
 40
16.040503085884819
 50
121.4820811997841
 51
125.965875469236
  0
ARC
  5
214B
  8
0
 10
100.18152206096811
 20
154.30932257667351
 30
0.0
 40
16.040503085884819
 50
130.40616913391059
 51
134.81287784917899
  0
ARC
  5
214C
  8
0
 10
71.054508406802142
 20
136.67742826757419
 30
0.0
 40
31.88376866014449
 50
50.972820238211121
 51
59.102545419964862
  0
ARC
  5
214D
  8
0
 10
100.18152206096811
 20
154.30932257667351
 30
0.0
 40
16.040503085884819
 50
102.3981900715557
 51
107.6018099284431
  0
ARC
  5
214E
  8
0
 10
100.18152206096811
 20
154.30932257667351
 30
0.0
 40
16.040503085884819
 50
112.1631588307517
 51
116.7285595791495
  0
LINE
  5
214F
  8
0
 10
103.728666274432
 20
162.91546059048599
 30
0.0
 11
109.71313490657199
 21
159.191922867556
 31
0.0
  0
ARC
  5
2150
  8
0
 10
134.22220297640169
 20
153.60316101523421
 30
0.0
 40
31.88376866014449
 50
163.01806173598951
 51
171.78231009867531
  0
ARC
  5
2151
  8
0
 10
134.22220297640169
 20
153.60316101523421
 30
0.0
 40
34.0480046601445
 50
163.09813331764431
 51
178.81159031862919
  0
LINE
  5
2152
  8
0
 10
102.6658121508066
 20
158.1604521005072
 30
0.0
 11
109.71313490657199
 21
156.3274444062512
 31
0.0
  0
LINE
  5
2153
  8
0
 10
102.4276121158384
 20
155.98616248040321
 30
0.0
 11
109.71313490657199
 21
154.09119898931471
 31
0.0
  0
LINE
  5
2154
  8
0
 10
109.71313490657199
 20
156.3274444062512
 30
0.0
 11
109.71313490657199
 21
159.191922867556
 31
0.0
  0
LINE
  5
2155
  8
0
 10
109.71313490657199
 20
150.39183431007581
 30
0.0
 11
109.71313490657199
 21
154.09119898931471
 31
0.0
  0
ARC
  5
2156
  8
0
 10
100.18152206096811
 20
154.30932257667351
 30
0.0
 40
16.040503085884819
 50
75.187122150820755
 51
79.593830866088126
  0
ARC
  5
2157
  8
0
 10
100.18152206096811
 20
154.30932257667351
 30
0.0
 40
16.040503085884819
 50
84.034124530763236
 51
88.517918800214645
  0
ARC
  5
2158
  8
0
 10
100.18152206096811
 20
154.30932257667351
 30
0.0
 40
16.040503085884819
 50
93.271440420850894
 51
97.836841169247677
  0
LINE
  5
2159
  8
0
 10
107.57066594597831
 20
171.10374037391779
 30
0.0
 11
109.71313490657199
 21
168.26634756998649
 31
0.0
  0
LINE
  5
215A
  8
0
 10
109.71313490657199
 20
161.74088678233949
 30
0.0
 11
109.71313490657199
 21
164.67481095321179
 31
0.0
  0
LINE
  5
215B
  8
0
 10
104.4507237004147
 20
165.0151602131437
 30
0.0
 11
109.71313490657199
 21
161.74088678233949
 31
0.0
  0
LINE
  5
215C
  8
0
 10
106.36374046099149
 20
169.11060343012301
 30
0.0
 11
109.71313490657199
 21
164.6748109532117
 31
0.0
  0
ARC
  5
215D
  8
0
 10
134.22220297640169
 20
153.60316101523421
 30
0.0
 40
31.88376866014449
 50
150.89745458003659
 51
159.02717976178829
  0
ARC
  5
230D
  8
0
 10
100.18152206096811
 20
154.30932257667351
 30
0.0
 40
25.246949689350831
 50
67.049390238802189
 51
72.413583729103806
  0
ARC
  5
230E
  8
0
 10
100.18152206096811
 20
154.30932257667351
 30
0.0
 40
25.246949689350831
 50
126.78161321097291
 51
132.32607389999609
  0
ARC
  5
230F
  8
0
 10
100.18152206096811
 20
154.30932257667351
 30
0.0
 40
25.246949689350831
 50
88.927743667846599
 51
95.948699458486715
  0
ARC
  5
2310
  8
0
 10
100.18152206096811
 20
154.30932257667351
 30
0.0
 40
25.246949689350831
 50
114.0513005415134
 51
121.0722563321535
  0
ARC
  5
2311
  8
0
 10
100.18152206096811
 20
154.30932257667351
 30
0.0
 40
25.246949689350831
 50
101.8320116268785
 51
108.1679883731227
  0
ARC
  5
2312
  8
0
 10
100.18152206096811
 20
154.30932257667351
 30
0.0
 40
25.246949689350831
 50
77.673926100001964
 51
83.218386789027733
  0
ARC
  5
26C1
  8
0
 10
114.71758537194481
 20
181.9489563526472
 30
0.0
 40
4.328471999999997
 50
108.7741148271805
 51
154.9813573579155
  0
ARC
  5
35A6
  8
0
 10
271.00563353906631
 20
154.3118675522482
 30
0.0
 40
27.41118568935083
 50
70.4767727141368
 51
79.526641706886934
  0
ARC
  5
35A7
  8
0
 10
278.09938151557242
 20
180.78925111901859
 30
0.0
 40
2.1642359999999989
 50
342.73923996232691
 51
167.26417445869839
  0
ARC
  5
35A8
  8
0
 10
278.09938151557242
 20
180.78925111901859
 30
0.0
 40
4.3284719999999988
 50
8.5965404159965306
 51
141.40687400502759
  0
ARC
  5
35A9
  8
0
 10
284.9176664135486
 20
177.93025958463241
 30
0.0
 40
4.3284719999999988
 50
351.89399286802927
 51
125.9056409058944
  0
ARC
  5
35AA
  8
0
 10
271.00563353906631
 20
154.3118675522482
 30
0.0
 40
27.41118568935083
 50
54.975539615006099
 51
64.025408607754144
  0
ARC
  5
35AB
  8
0
 10
284.9176664135486
 20
177.93025958463241
 30
0.0
 40
2.1642359999999989
 50
327.23800686319322
 51
151.76294135956741
  0
ARC
  5
35AC
  8
0
 10
290.78397339648291
 20
173.29054962926801
 30
0.0
 40
2.1642359999999989
 50
311.55554007661777
 51
136.0804745729925
  0
ARC
  5
35AD
  8
0
 10
290.78397339648291
 20
173.29054962926801
 30
0.0
 40
4.3284719999999988
 50
16.607105467582681
 51
111.4244885681554
  0
ARC
  5
35AE
  8
0
 10
271.00563353906631
 20
154.31186755224809
 30
0.0
 40
27.41118568935083
 50
39.293072828428471
 51
48.342941821177646
  0
ARC
  5
35AF
  8
0
 10
270.76502221843572
 20
181.72199719602139
 30
0.0
 40
2.1642359999999989
 50
358.24047306145519
 51
182.7654075578314
  0
ARC
  5
35B0
  8
0
 10
270.76502221843572
 20
181.72199719602139
 30
0.0
 40
4.3284719999999988
 50
24.097773515125599
 51
158.1094215529933
  0
ARC
  5
35B1
  8
0
 10
263.36486103576959
 20
180.6366030010411
 30
0.0
 40
4.3284719999999988
 50
38.578925852866632
 51
133.39630895344271
  0
ARC
  5
35B2
  8
0
 10
271.00563353906631
 20
154.31186755224809
 30
0.0
 40
27.41118568935083
 50
85.978005813266833
 51
95.027874806016996
  0
ARC
  5
35B3
  8
0
 10
271.00563353906608
 20
154.3118675522482
 30
0.0
 40
27.41118568935083
 50
101.66047259984489
 51
110.710341592593
  0
ARC
  5
35B4
  8
0
 10
263.36486103576959
 20
180.6366030010411
 30
0.0
 40
2.1642359999999989
 50
13.922939848034179
 51
198.4478743444057
  0
ARC
  5
35B5
  8
0
 10
295.93473549679811
 20
170.3169603731283
 30
0.0
 40
4.3284719999999988
 50
8.5789258528667105
 51
103.3963089534431
  0
ARC
  5
35B6
  8
0
 10
295.93473549679811
 20
170.3169603731283
 30
0.0
 40
2.1642359999999989
 50
343.92293984803268
 51
168.44787434440551
  0
ARC
  5
35B7
  8
0
 10
302.88616017057637
 20
167.55685872776829
 30
0.0
 40
4.3284719999999988
 50
354.09777351512753
 51
128.109421552995
  0
ARC
  5
35B8
  8
0
 10
289.38947086479402
 20
143.6986844749205
 30
0.0
 40
27.41118568935083
 50
71.660472599845605
 51
80.710341592591959
  0
ARC
  5
35B9
  8
0
 10
308.77152860387798
 20
163.08189728123531
 30
0.0
 40
4.3284719999999988
 50
338.59654041599549
 51
111.40687400502669
  0
ARC
  5
35BA
  8
0
 10
308.77152860387798
 20
163.08189728123531
 30
0.0
 40
2.1642359999999989
 50
312.73923996232259
 51
137.26417445869839
  0
ARC
  5
35BB
  8
0
 10
302.88616017057637
 20
167.55685872776829
 30
0.0
 40
2.1642359999999989
 50
328.24047306145837
 51
152.76540755783009
  0
ARC
  5
35BC
  8
0
 10
289.38947086479402
 20
143.6986844749205
 30
0.0
 40
27.41118568935083
 50
55.978005813267259
 51
65.027874806016143
  0
ARC
  5
35BD
  8
0
 10
289.38947086479402
 20
143.6986844749205
 30
0.0
 40
27.41118568935083
 50
40.476772714136459
 51
49.526641706887283
  0
ARC
  5
35BE
  8
0
 10
313.2468407685721
 20
157.1967955342642
 30
0.0
 40
4.3284719999999988
 50
321.89399286802899
 51
95.905640905896618
  0
ARC
  5
35BF
  8
0
 10
313.2468407685721
 20
157.1967955342642
 30
0.0
 40
2.1642359999999989
 50
297.23800686319402
 51
121.76294135956471
  0
ARC
  5
35C0
  8
0
 10
316.00735666450908
 20
150.24553535525979
 30
0.0
 40
4.3284719999999988
 50
346.60710546757991
 51
81.424488568155169
  0
ARC
  5
35C1
  8
0
 10
289.38947086479402
 20
143.6986844749205
 30
0.0
 40
27.41118568935083
 50
24.975539615005822
 51
34.025408607753953
  0
ARC
  5
35C2
  8
0
 10
316.00735666450908
 20
150.24553535525979
 30
0.0
 40
2.1642359999999989
 50
281.55554007661658
 51
106.0804745729917
  0
ARC
  5
35C3
  8
0
 10
289.38947086479402
 20
143.6986844749205
 30
0.0
 40
27.41118568935083
 50
9.2930728284286328
 51
18.342941821179981
  0
ARC
  5
35C4
  8
0
 10
318.98125286416217
 20
145.09495046886479
 30
0.0
 40
4.3284719999999988
 50
338.57892585286743
 51
73.396308953444006
  0
ARC
  5
35C5
  8
0
 10
318.98125286416217
 20
145.09495046886479
 30
0.0
 40
2.1642359999999989
 50
313.92293984803121
 51
138.44787434440661
  0
ARC
  5
35C6
  8
0
 10
323.62131240146829
 20
139.22891999006669
 30
0.0
 40
4.3284719999999988
 50
324.09777351512832
 51
98.109421552994462
  0
ARC
  5
35C7
  8
0
 10
300.00374946925098
 20
125.31547965207589
 30
0.0
 40
27.41118568935083
 50
41.660472599843978
 51
50.710341592593593
  0
ARC
  5
35C8
  8
0
 10
326.48071025207202
 20
132.41080547976219
 30
0.0
 40
4.3284719999999988
 50
308.59654041599572
 51
81.406874005027106
  0
ARC
  5
35C9
  8
0
 10
326.48071025207202
 20
132.41080547976219
 30
0.0
 40
2.1642359999999989
 50
282.7392399623244
 51
107.264174458699
  0
ARC
  5
35CA
  8
0
 10
323.62131240146829
 20
139.22891999006669
 30
0.0
 40
2.1642359999999989
 50
298.24047306145542
 51
122.7654075578306
  0
ARC
  5
35CB
  8
0
 10
300.00374946925098
 20
125.31547965207589
 30
0.0
 40
27.41118568935083
 50
25.97800581326787
 51
35.027874806017962
  0
ARC
  5
35CC
  8
0
 10
300.00374946925098
 20
125.31547965207569
 30
0.0
 40
27.41118568935083
 50
10.47677271413605
 51
19.52664170688702
  0
ARC
  5
35CD
  8
0
 10
327.413893403077
 20
125.07650178068209
 30
0.0
 40
4.3284719999999988
 50
291.89399286802939
 51
65.905640905896632
  0
ARC
  5
35CE
  8
0
 10
327.413893403077
 20
125.07650178068209
 30
0.0
 40
2.1642359999999989
 50
267.23800686319493
 51
91.76294135956519
  0
ARC
  5
35CF
  8
0
 10
326.32894020700701
 20
117.67627592938059
 30
0.0
 40
4.3284719999999988
 50
316.60710546758207
 51
51.424488568154622
  0
ARC
  5
35D0
  8
0
 10
300.00374946925098
 20
125.31547965207589
 30
0.0
 40
27.41118568935083
 50
354.97553961500392
 51
4.0254086077558267
  0
ARC
  5
35D1
  8
0
 10
326.32894020700701
 20
117.67627592938059
 30
0.0
 40
2.1642359999999989
 50
251.555540076619
 51
76.080474572992301
  0
ARC
  5
35D2
  8
0
 10
300.00374946925098
 20
125.31547965207569
 30
0.0
 40
27.41118568935083
 50
339.29307282842882
 51
348.34294182117799
  0
ARC
  5
35D3
  8
0
 10
326.32911742092722
 20
111.72879047358779
 30
0.0
 40
4.3284719999999988
 50
308.57892585286601
 51
43.396308953444922
  0
ARC
  5
35D4
  8
0
 10
326.32911742092722
 20
111.72879047358779
 30
0.0
 40
2.1642359999999989
 50
283.92293984803251
 51
108.4478743444042
  0
ARC
  5
35D5
  8
0
 10
327.41451161590737
 20
104.3286292909218
 30
0.0
 40
4.3284719999999988
 50
294.09777351512793
 51
68.109421552993737
  0
ARC
  5
35D6
  8
0
 10
300.00438197213418
 20
104.0880179702912
 30
0.0
 40
27.41118568935083
 50
11.66047259984505
 51
20.71034159259408
  0
ARC
  5
35D7
  8
0
 10
326.4817655389046
 20
96.994269993785025
 30
0.0
 40
4.3284719999999988
 50
278.59654041599788
 51
51.406874005026999
  0
ARC
  5
35D8
  8
0
 10
326.4817655389046
 20
96.994269993785025
 30
0.0
 40
2.1642359999999989
 50
252.73923996232591
 51
77.264174458698577
  0
ARC
  5
35D9
  8
0
 10
327.41451161590737
 20
104.3286292909218
 30
0.0
 40
2.1642359999999989
 50
268.24047306145519
 51
92.765407557828112
  0
ARC
  5
35DA
  8
0
 10
300.00438197213413
 20
104.08801797029111
 30
0.0
 40
27.41118568935083
 50
355.97800581326771
 51
5.0278748060194509
  0
ARC
  5
35DB
  8
0
 10
300.00438197213418
 20
104.08801797029111
 30
0.0
 40
27.41118568935083
 50
340.47677271413681
 51
349.5266417068874
  0
ARC
  5
35DC
  8
0
 10
323.62277400451848
 20
90.175985095808869
 30
0.0
 40
4.3284719999999988
 50
261.89399286802728
 51
35.905640905895957
  0
ARC
  5
35DD
  8
0
 10
323.62277400451848
 20
90.175985095808869
 30
0.0
 40
2.1642359999999989
 50
237.23800686319359
 51
61.762941359566177
  0
ARC
  5
35DE
  8
0
 10
318.983064049154
 20
84.309678112874451
 30
0.0
 40
4.3284719999999988
 50
286.60710546758122
 51
21.424488568155962
  0
ARC
  5
35DF
  8
0
 10
300.00438197213418
 20
104.08801797029111
 30
0.0
 40
27.41118568935083
 50
324.97553961500438
 51
334.0254086077548
  0
ARC
  5
35E0
  8
0
 10
318.983064049154
 20
84.309678112874451
 30
0.0
 40
2.1642359999999989
 50
221.55554007661721
 51
46.080474572992422
  0
ARC
  5
35E1
  8
0
 10
300.00438197213413
 20
104.08801797029111
 30
0.0
 40
27.41118568935083
 50
309.29307282843052
 51
318.34294182117731
  0
ARC
  5
35E2
  8
0
 10
316.00947479301431
 20
79.158916012559331
 30
0.0
 40
4.3284719999999988
 50
278.57892585286692
 51
13.396308953442841
  0
ARC
  5
35E3
  8
0
 10
316.00947479301431
 20
79.158916012559331
 30
0.0
 40
2.1642359999999989
 50
253.9229398480322
 51
78.447874344406273
  0
ARC
  5
35E4
  8
0
 10
313.2493731476543
 20
72.207491338781011
 30
0.0
 40
4.3284719999999988
 50
264.0977735151269
 51
38.109421552994107
  0
ARC
  5
35E5
  8
0
 10
289.39119889480662
 20
85.704180644563465
 30
0.0
 40
27.41118568935083
 50
341.66047259984327
 51
350.71034159259477
  0
ARC
  5
35E6
  8
0
 10
308.77441170112121
 20
66.322122905479318
 30
0.0
 40
4.3284719999999988
 50
248.59654041599691
 51
21.406874005027689
  0
ARC
  5
35E7
  8
0
 10
308.77441170112121
 20
66.322122905479318
 30
0.0
 40
2.1642359999999989
 50
222.7392399623258
 51
47.264174458698221
  0
ARC
  5
35E8
  8
0
 10
313.2493731476543
 20
72.207491338781011
 30
0.0
 40
2.1642359999999989
 50
238.2404730614584
 51
62.76540755783158
  0
ARC
  5
35E9
  8
0
 10
289.39119889480651
 20
85.704180644563465
 30
0.0
 40
27.41118568935083
 50
325.97800581326942
 51
335.027874806017
  0
ARC
  5
35EA
  8
0
 10
289.39119889480651
 20
85.704180644563394
 30
0.0
 40
27.41118568935083
 50
310.47677271413602
 51
319.52664170688649
  0
ARC
  5
35EB
  8
0
 10
302.88930995415018
 20
61.84681074078533
 30
0.0
 40
4.3284719999999988
 50
231.89399286802779
 51
5.9056409058955852
  0
ARC
  5
35EC
  8
0
 10
302.88930995415018
 20
61.84681074078533
 30
0.0
 40
2.1642359999999989
 50
207.23800686319251
 51
31.76294135956638
  0
ARC
  5
35ED
  8
0
 10
295.93804977514583
 20
59.086294844848339
 30
0.0
 40
4.3284719999999988
 50
256.60710546758281
 51
351.42448856815662
  0
ARC
  5
35EE
  8
0
 10
289.39119889480651
 20
85.704180644563394
 30
0.0
 40
27.41118568935083
 50
294.97553961500307
 51
304.02540860775218
  0
ARC
  5
35EF
  8
0
 10
295.93804977514583
 20
59.086294844848339
 30
0.0
 40
2.1642359999999989
 50
191.5555400766182
 51
16.080474572990131
  0
ARC
  5
35F0
  8
0
 10
289.39119889480651
 20
85.704180644563394
 30
0.0
 40
27.41118568935083
 50
279.29307282843098
 51
288.34294182117918
  0
ARC
  5
35F1
  8
0
 10
290.78746488875078
 20
56.11239864519515
 30
0.0
 40
4.3284719999999988
 50
248.57892585286791
 51
343.39630895344419
  0
ARC
  5
35F2
  8
0
 10
290.78746488875078
 20
56.11239864519515
 30
0.0
 40
2.1642359999999989
 50
223.922939848033
 51
48.447874344406557
  0
ARC
  5
35F3
  8
0
 10
284.92143440995272
 20
51.472339107889127
 30
0.0
 40
4.3284719999999988
 50
234.09777351512901
 51
8.1094215529937141
  0
ARC
  5
35F4
  8
0
 10
271.00799407196189
 20
75.089902040106381
 30
0.0
 40
27.41118568935083
 50
311.66047259984538
 51
320.71034159259438
  0
ARC
  5
35F5
  8
0
 10
278.10331989964828
 20
48.612941257285406
 30
0.0
 40
4.3284719999999988
 50
218.59654041599501
 51
351.40687400502651
  0
ARC
  5
35F6
  8
0
 10
278.10331989964828
 20
48.612941257285406
 30
0.0
 40
2.1642359999999989
 50
192.739239962325
 51
17.2641744586969
  0
ARC
  5
35F7
  8
0
 10
284.92143440995272
 20
51.472339107889127
 30
0.0
 40
2.1642359999999989
 50
208.2404730614563
 51
32.765407557828937
  0
ARC
  5
35F8
  8
0
 10
271.00799407196189
 20
75.089902040106381
 30
0.0
 40
27.41118568935083
 50
295.97800581326811
 51
305.02787480601711
  0
ARC
  5
35F9
  8
0
 10
271.00799407196178
 20
75.089902040106324
 30
0.0
 40
27.41118568935083
 50
280.47677271413721
 51
289.52664170688729
  0
ARC
  5
35FA
  8
0
 10
270.7690162005681
 20
47.67975810628041
 30
0.0
 40
4.3284719999999988
 50
201.89399286802649
 51
335.90564090589442
  0
ARC
  5
35FB
  8
0
 10
270.7690162005681
 20
47.67975810628041
 30
0.0
 40
2.1642359999999989
 50
177.23800686319191
 51
1.7629413595649679
  0
ARC
  5
35FC
  8
0
 10
263.3687903492667
 20
48.764711302350378
 30
0.0
 40
4.3284719999999988
 50
226.6071054675796
 51
321.42448856815793
  0
ARC
  5
35FD
  8
0
 10
271.00799407196189
 20
75.089902040106381
 30
0.0
 40
27.41118568935083
 50
264.9755396150066
 51
274.02540860775468
  0
ARC
  5
35FE
  8
0
 10
263.3687903492667
 20
48.764711302350378
 30
0.0
 40
2.1642359999999989
 50
161.55554007661709
 51
346.0804745729892
  0
ARC
  5
35FF
  8
0
 10
271.00799407196178
 20
75.089902040106381
 30
0.0
 40
27.41118568935083
 50
249.29307282842831
 51
258.34294182117719
  0
ARC
  5
3600
  8
0
 10
236.9649736798475
 20
153.60469169986439
 30
0.0
 40
34.0480046601445
 50
28.439053227499411
 51
44.714517051533662
  0
ARC
  5
3601
  8
0
 10
234.5656456212507
 20
156.44121231057591
 30
0.0
 40
36.212240660144509
 50
22.139819827717059
 51
37.286468174679023
  0
ARC
  5
3602
  8
0
 10
232.4572148512562
 20
159.65583519043719
 30
0.0
 40
38.376476660144498
 50
16.049116058064129
 51
30.22886797367558
  0
LINE
  5
3603
  8
0
 10
276.1816055670879
 20
179.0225490924596
 30
0.0
 11
274.44913452365961
 21
169.9783936578462
 31
0.0
  0
LINE
  5
3604
  8
0
 10
278.87702151161761
 20
178.30040064625351
 30
0.0
 11
275.85582611550018
 21
169.60151670518121
 31
0.0
  0
ARC
  5
3605
  8
0
 10
229.03413957166211
 20
168.5937113139255
 30
0.0
 40
42.921372260144501
 50
2.3134068011579871
 51
14.795289618641981
  0
ARC
  5
3606
  8
0
 10
228.0632982088847
 20
176.92302313135031
 30
0.0
 40
45.626667260144501
 50
351.53002863697941
 51
3.140851723709869
  0
ARC
  5
3607
  8
0
 10
230.46702228004619
 20
163.8309107644497
 30
0.0
 40
40.648924460144492
 50
9.2243936363089265
 51
22.49314423506739
  0
ARC
  5
3608
  8
0
 10
310.87333889742911
 20
142.28867097461239
 30
0.0
 40
40.648924460144492
 50
127.5102701859567
 51
140.77902078471089
  0
ARC
  5
3609
  8
0
 10
319.50047712705782
 20
152.42542497205719
 30
0.0
 40
45.626667260144501
 50
146.8625626973124
 51
158.4733857840445
  0
ARC
  5
360A
  8
0
 10
314.4954488834868
 20
145.697151747475
 30
0.0
 40
42.921372260144501
 50
135.20812480238069
 51
147.69000761986479
  0
ARC
  5
360B
  8
0
 10
307.06239996272689
 20
139.66781864088841
 30
0.0
 40
38.376476660144498
 50
119.7745464473478
 51
133.9542983629583
  0
LINE
  5
360C
  8
0
 10
261.4736048279737
 20
168.2686085311928
 30
0.0
 11
261.47343409564121
 21
173.9985650941239
 31
0.0
  0
ARC
  5
360D
  8
0
 10
236.9649736798475
 20
153.60469169986439
 30
0.0
 40
31.88376866014449
 50
33.292382637050423
 51
39.764371697238992
  0
ARC
  5
360E
  8
0
 10
271.00799407196178
 20
75.089902040106324
 30
0.0
 40
25.246949689350831
 50
247.051097449313
 51
252.41529093961489
  0
ARC
  5
360F
  8
0
 10
236.96729213053561
 20
75.795049309974246
 30
0.0
 40
34.0480046601445
 50
315.28889736948929
 51
331.56436119352418
  0
ARC
  5
3610
  8
0
 10
300.00438197213418
 20
104.08801797029111
 30
0.0
 40
25.246949689350831
 50
307.05109744931571
 51
312.41529093961623
  0
ARC
  5
3611
  8
0
 10
282.37335555230612
 20
74.960478961295735
 30
0.0
 40
34.0480046601445
 50
15.288897369488341
 51
31.564361193523791
  0
LINE
  5
3612
  8
0
 10
261.47610319971341
 20
84.420626502935207
 30
0.0
 11
261.4761999852883
 21
81.172400861838014
 31
0.0
  0
ARC
  5
3613
  8
0
 10
260.39308296462173
 20
114.7005685447357
 30
0.0
 40
30.299303999999999
 50
272.04842030818298
 51
282.95499411283851
  0
ARC
  5
3614
  8
0
 10
260.39308296462173
 20
114.7005685447357
 30
0.0
 40
33.545658000000003
 50
286.85027885574141
 51
298.1531355652827
  0
LINE
  5
3615
  8
0
 10
269.27622586510893
 20
85.732696771097608
 30
0.0
 11
270.11702201150172
 21
82.595176784697486
 31
0.0
  0
LINE
  5
3616
  8
0
 10
267.18575110979663
 20
85.1724889872375
 30
0.0
 11
268.0265472561893
 21
82.034969000837407
 31
0.0
  0
ARC
  5
3617
  8
0
 10
259.55851261594319
 20
69.294505122965177
 30
0.0
 40
31.88376866014449
 50
25.715408247706542
 51
37.473095786083363
  0
LINE
  5
3618
  8
0
 10
300.79737640487031
 20
84.048838762766906
 30
0.0
 11
300.59279346340043
 21
90.243351174766701
 31
0.0
  0
ARC
  5
3619
  8
0
 10
305.79909657130861
 20
115.5378447704239
 30
0.0
 40
34.0480046601445
 50
241.19011689188059
 51
256.90357389286658
  0
ARC
  5
361A
  8
0
 10
259.55851261594307
 20
69.294505122965177
 30
0.0
 40
34.0480046601445
 50
13.0998405281558
 51
28.813297529140002
  0
LINE
  5
361B
  8
0
 10
306.24410549215821
 20
86.980789168499768
 30
0.0
 11
311.20647880440418
 21
84.115958745571476
 31
0.0
  0
LINE
  5
361C
  8
0
 10
307.6302228173671
 20
83.706701519754887
 30
0.0
 11
306.24410549215821
 21
86.980789168499882
 31
0.0
  0
LINE
  5
361D
  8
0
 10
305.30065429924508
 20
83.657972448298239
 30
0.0
 11
303.13369003727922
 21
88.776464798363065
 31
0.0
  0
ARC
  5
361E
  8
0
 10
260.39308296462173
 20
114.7005685447357
 30
0.0
 40
35.709894000000013
 50
301.73820878644779
 51
313.2540167519108
  0
LINE
  5
361F
  8
0
 10
279.1778768180576
 20
84.330714258368886
 30
0.0
 11
281.02765461702978
 21
81.127025583664391
 31
0.0
  0
ARC
  5
3620
  8
0
 10
317.90423776580491
 20
116.0521262229158
 30
0.0
 40
40.648924460144492
 50
249.22439363631219
 51
262.49314423506542
  0
ARC
  5
3621
  8
0
 10
313.29341997038517
 20
116.41610668483121
 30
0.0
 40
38.376476660144498
 50
256.04911605806677
 51
270.22886797367579
  0
ARC
  5
3622
  8
0
 10
309.45525950784139
 20
116.1974635158257
 30
0.0
 40
36.212240660144509
 50
262.13981982771901
 51
277.2864681746787
  0
ARC
  5
3623
  8
0
 10
305.79909657130861
 20
115.5378447704239
 30
0.0
 40
34.0480046601445
 50
268.43905322749731
 51
284.7145170515347
  0
ARC
  5
3624
  8
0
 10
289.39119889480651
 20
85.704180644563309
 30
0.0
 40
25.246949689350831
 50
324.05300775202369
 51
331.07396354266592
  0
ARC
  5
3625
  8
0
 10
322.74538538900151
 20
114.911638774282
 30
0.0
 40
42.921372260144501
 50
242.3134068011606
 51
254.79528961864131
  0
ARC
  5
3626
  8
0
 10
305.79909657130861
 20
115.5378447704239
 30
0.0
 40
31.88376866014449
 50
273.2923826370515
 51
279.76437169724352
  0
ARC
  5
3627
  8
0
 10
289.39119889480651
 20
85.704180644563309
 30
0.0
 40
25.246949689350831
 50
347.58812348140611
 51
352.95231697170908
  0
ARC
  5
3628
  8
0
 10
289.39119889480651
 20
85.704180644563309
 30
0.0
 40
25.246949689350831
 50
336.78332042148332
 51
342.32778111050999
  0
ARC
  5
3629
  8
0
 10
310.87498286251582
 20
87.115474428127953
 30
0.0
 40
40.648924460144492
 50
219.2243936363119
 51
232.49314423506701
  0
ARC
  5
362A
  8
0
 10
307.06388775041859
 20
89.736099652337714
 30
0.0
 40
38.376476660144498
 50
226.0491160580651
 51
240.22886797367559
  0
ARC
  5
362B
  8
0
 10
303.63062170155189
 20
91.465829344886956
 30
0.0
 40
36.212240660144509
 50
232.13981982771821
 51
247.28646817467941
  0
ARC
  5
362C
  8
0
 10
300.13448234543858
 20
92.722664222822942
 30
0.0
 40
34.0480046601445
 50
238.43905322749629
 51
254.71451705153621
  0
LINE
  5
362D
  8
0
 10
288.28452453318431
 20
83.128916686314497
 30
0.0
 11
281.02765461702978
 21
81.127025583664334
 31
0.0
  0
LINE
  5
362E
  8
0
 10
290.62262582445999
 20
76.477511077443012
 30
0.0
 11
283.57814817653463
 21
76.70974512109629
 31
0.0
  0
LINE
  5
362F
  8
0
 10
291.04722050073252
 20
74.298101801357802
 30
0.0
 11
284.85269590804347
 21
74.502315593574735
 31
0.0
  0
LINE
  5
3630
  8
0
 10
284.85269590804347
 20
74.502315593574735
 30
0.0
 11
286.3197337012096
 21
71.961506440204303
 31
0.0
  0
LINE
  5
3631
  8
0
 10
289.1654417165459
 20
81.126852869946589
 30
0.0
 11
282.14583503014711
 21
79.190413560441698
 31
0.0
  0
ARC
  5
3632
  8
0
 10
289.39119889480651
 20
85.704180644563309
 30
0.0
 40
25.246949689350831
 50
287.6756333105148
 51
293.22009399953993
  0
ARC
  5
3633
  8
0
 10
259.55851261594307
 20
69.294505122965177
 30
0.0
 40
34.0480046601445
 50
345.28889736949009
 51
1.5643611935256081
  0
ARC
  5
3634
  8
0
 10
258.89911175302421
 20
65.638302884337804
 30
0.0
 40
36.212240660144509
 50
352.71694624634358
 51
7.8635945933046827
  0
ARC
  5
3635
  8
0
 10
258.68069731147688
 20
61.800129399031221
 30
0.0
 40
38.376476660144498
 50
359.77454644734939
 51
13.95429836295755
  0
ARC
  5
3636
  8
0
 10
289.39119889480651
 20
85.704180644563309
 30
0.0
 40
25.246949689350831
 50
277.05109744931337
 51
282.41529093961498
  0
ARC
  5
3637
  8
0
 10
271.00799407196178
 20
75.089902040106324
 30
0.0
 40
25.246949689350831
 50
317.5881234814089
 51
322.95231697170863
  0
ARC
  5
3638
  8
0
 10
271.00799407196178
 20
75.089902040106324
 30
0.0
 40
25.246949689350831
 50
306.78332042148332
 51
312.32778111050851
  0
ARC
  5
3639
  8
0
 10
259.04495254469839
 20
57.189333302445952
 30
0.0
 40
40.648924460144492
 50
7.5102701859562364
 51
20.779020784714589
  0
ARC
  5
363A
  8
0
 10
289.39119889480651
 20
85.704180644563394
 30
0.0
 40
9.3084823458983124
 50
290.95656902864982
 51
339.0468453923765
  0
LINE
  5
363B
  8
0
 10
306.23018396746318
 20
66.893092150287984
 30
0.0
 11
300.20732718798081
 21
73.858966083658345
 31
0.0
  0
LINE
  5
363C
  8
0
 10
308.20329083944603
 20
68.866316608913138
 30
0.0
 11
301.23705799901001
 21
74.888758261149803
 31
0.0
  0
ARC
  5
363D
  8
0
 10
330.44420170032203
 20
111.58775614877941
 30
0.0
 40
45.626667260144501
 50
231.53002863697989
 51
243.14085172371111
  0
ARC
  5
363E
  8
0
 10
289.39119889480651
 20
85.704180644563309
 30
0.0
 40
25.246949689350831
 50
298.9294508783583
 51
305.95040666899672
  0
ARC
  5
363F
  8
0
 10
263.51006990358468
 20
44.649635434905221
 30
0.0
 40
45.626667260144501
 50
26.862562697312711
 51
38.473385784045007
  0
ARC
  5
3640
  8
0
 10
289.39119889480651
 20
85.704180644563309
 30
0.0
 40
25.246949689350831
 50
311.83371883739028
 51
318.1696955836332
  0
ARC
  5
3641
  8
0
 10
289.39119889480651
 20
85.704180644563309
 30
0.0
 40
16.040503085884819
 50
303.2731476313615
 51
307.83854837975952
  0
ARC
  5
3642
  8
0
 10
260.18572848927943
 20
52.348253652787427
 30
0.0
 40
42.921372260144501
 50
15.20812480238218
 51
27.69000761986435
  0
ARC
  5
3643
  8
0
 10
289.39119889480651
 20
85.704180644563309
 30
0.0
 40
16.040503085884819
 50
331.48378841029529
 51
335.96758267974792
  0
ARC
  5
3644
  8
0
 10
305.79909657130861
 20
115.5378447704239
 30
0.0
 40
31.88376866014449
 50
260.97452744872209
 51
269.10425263047711
  0
ARC
  5
3645
  8
0
 10
289.39119889480651
 20
85.704180644563309
 30
0.0
 40
16.040503085884819
 50
340.40787634442211
 51
344.8145850596905
  0
ARC
  5
3646
  8
0
 10
289.39119889480651
 20
85.704180644563309
 30
0.0
 40
16.040503085884819
 50
322.16486604126391
 51
326.7302667896638
  0
ARC
  5
3647
  8
0
 10
289.39119889480651
 20
85.704180644563309
 30
0.0
 40
16.040503085884819
 50
312.39989728206558
 51
317.60351713895523
  0
ARC
  5
3648
  8
0
 10
259.55851261594319
 20
69.294505122965177
 30
0.0
 40
31.88376866014449
 50
0.8991617905481065
 51
9.0288869723010912
  0
ARC
  5
3649
  8
0
 10
289.39119889480651
 20
85.704180644563309
 30
0.0
 40
16.040503085884819
 50
285.18882936133298
 51
289.5955380766016
  0
ARC
  5
364A
  8
0
 10
289.39119889480651
 20
85.704180644563309
 30
0.0
 40
16.040503085884819
 50
294.03583174127709
 51
298.5196260107283
  0
LINE
  5
364B
  8
0
 10
291.43835517784618
 20
69.794847207832163
 30
0.0
 11
286.3197337012096
 21
71.961506440204374
 31
0.0
  0
LINE
  5
364C
  8
0
 10
291.38976493219388
 20
67.465275789940534
 30
0.0
 11
288.11559468652689
 21
68.851198000346756
 31
0.0
  0
ARC
  5
364D
  8
0
 10
300.13448234543858
 20
92.722664222822985
 30
0.0
 40
31.88376866014449
 50
243.29238263705321
 51
249.7643716972438
  0
ARC
  5
364E
  8
0
 10
259.55851261594319
 20
69.294505122965177
 30
0.0
 40
31.88376866014449
 50
350.23904272378172
 51
356.71103178397021
  0
LINE
  5
364F
  8
0
 10
286.24134357484297
 20
67.769024153847226
 30
0.0
 11
289.10646971484579
 21
62.806821573933739
 31
0.0
  0
LINE
  5
3650
  8
0
 10
288.11559468652689
 20
68.851198000346756
 30
0.0
 11
290.98072082652959
 21
63.888995420433261
 31
0.0
  0
LINE
  5
3651
  8
0
 10
285.80471256672718
 20
64.240522413212801
 30
0.0
 11
286.24134357484297
 21
67.769024153847226
 31
0.0
  0
ARC
  5
3652
  8
0
 10
259.55851261594319
 20
69.294505122965177
 30
0.0
 40
31.88376866014449
 50
13.019768946500131
 51
21.78401730918603
  0
ARC
  5
3653
  8
0
 10
236.96729213053561
 20
75.795049309974246
 30
0.0
 40
31.88376866014449
 50
330.89916179054819
 51
339.02888697230009
  0
LINE
  5
3654
  8
0
 10
264.82621670022547
 20
60.288436985100113
 30
0.0
 11
261.47669008528771
 21
64.724129659996834
 31
0.0
  0
ARC
  5
3655
  8
0
 10
271.00799407196178
 20
75.089902040106324
 30
0.0
 40
25.246949689350831
 50
268.92945087835909
 51
275.95040666899911
  0
ARC
  5
3656
  8
0
 10
228.0670062821128
 20
52.476187443336528
 30
0.0
 40
45.626667260144501
 50
356.86256269731342
 51
8.4733857840442983
  0
LINE
  5
3657
  8
0
 10
276.18543867169183
 20
50.379528994898358
 30
0.0
 11
274.45242866398991
 21
59.423581170498082
 31
0.0
  0
LINE
  5
3658
  8
0
 10
278.88081157652312
 20
51.101838067445129
 30
0.0
 11
275.85909779414641
 21
59.800541951309619
 31
0.0
  0
ARC
  5
3659
  8
0
 10
271.00799407196178
 20
75.089902040106324
 30
0.0
 40
25.246949689350831
 50
281.83371883738988
 51
288.16969558363428
  0
ARC
  5
365A
  8
0
 10
271.00799407196178
 20
75.089902040106324
 30
0.0
 40
16.040503085884819
 50
301.48378841029592
 51
305.96758267974792
  0
ARC
  5
365B
  8
0
 10
319.50272515528007
 20
76.979234564772355
 30
0.0
 40
45.626667260144501
 50
201.53002863697941
 51
213.14085172371071
  0
ARC
  5
365C
  8
0
 10
314.49729596335777
 20
83.707209513315519
 30
0.0
 40
42.921372260144501
 50
212.31340680115841
 51
224.79528961864199
  0
ARC
  5
365D
  8
0
 10
271.00799407196178
 20
75.089902040106324
 30
0.0
 40
25.246949689350831
 50
294.05300775202591
 51
301.07396354266501
  0
ARC
  5
365E
  8
0
 10
271.00799407196178
 20
75.089902040106324
 30
0.0
 40
16.040503085884819
 50
292.16486604126408
 51
296.73026678966102
  0
ARC
  5
365F
  8
0
 10
271.00799407196178
 20
75.089902040106324
 30
0.0
 40
16.040503085884819
 50
282.39989728206842
 51
287.6035171389542
  0
ARC
  5
3660
  8
0
 10
234.56813311265671
 20
72.958385721408973
 30
0.0
 40
36.212240660144509
 50
322.71694624634409
 51
337.86359459330612
  0
ARC
  5
3661
  8
0
 10
232.45989391507001
 20
69.743637199775264
 30
0.0
 40
38.376476660144498
 50
329.77454644734792
 51
343.95429836295909
  0
ARC
  5
3662
  8
0
 10
230.4699501522087
 20
65.568443031851501
 30
0.0
 40
40.648924460144492
 50
337.51027018595522
 51
350.77902078471448
  0
ARC
  5
3663
  8
0
 10
229.0373512754127
 20
60.805557101212862
 30
0.0
 40
42.921372260144501
 50
345.20812480238118
 51
357.69000761986541
  0
ARC
  5
3664
  8
0
 10
271.00799407196178
 20
75.089902040106324
 30
0.0
 40
25.246949689350831
 50
257.67563331051502
 51
263.22009399953851
  0
ARC
  5
3665
  8
0
 10
271.00799407196178
 20
75.089902040106324
 30
0.0
 40
16.040503085884819
 50
255.18882936133181
 51
259.59553807660018
  0
ARC
  5
3666
  8
0
 10
271.00799407196178
 20
75.089902040106324
 30
0.0
 40
16.040503085884819
 50
264.0358317412755
 51
268.5196260107266
  0
ARC
  5
3667
  8
0
 10
271.00799407196178
 20
75.089902040106324
 30
0.0
 40
16.040503085884819
 50
273.2731476313611
 51
277.83854837976082
  0
ARC
  5
3668
  8
0
 10
236.96729213053561
 20
75.795049309974246
 30
0.0
 40
31.88376866014449
 50
320.23904272378297
 51
326.71103178397271
  0
LINE
  5
3669
  8
0
 10
263.61935060416857
 20
58.295264080101951
 30
0.0
 11
261.47679710030889
 21
61.132593044816367
 31
0.0
  0
LINE
  5
366A
  8
0
 10
261.476797100309
 20
61.132593044816311
 30
0.0
 11
261.47696783264138
 21
55.40263648188526
 31
0.0
  0
ARC
  5
366B
  8
0
 10
260.39308296462173
 20
114.7005685447357
 30
0.0
 40
35.709894000000013
 50
286.749397669112
 51
298.2652056345737
  0
ARC
  5
366C
  8
0
 10
300.13448234543858
 20
92.722664222822985
 30
0.0
 40
34.0480046601445
 50
211.19011689188301
 51
226.9035738928695
  0
ARC
  5
366D
  8
0
 10
300.13448234543858
 20
92.722664222822985
 30
0.0
 40
31.88376866014449
 50
202.53031863493979
 51
214.2880061733172
  0
ARC
  5
366E
  8
0
 10
271.00799407196178
 20
75.089902040106324
 30
0.0
 40
9.3084823458983124
 50
260.95656902864749
 51
309.04684539237508
  0
LINE
  5
366F
  8
0
 10
280.05836261485371
 20
67.953245163490351
 30
0.0
 11
282.97844479635961
 21
73.420141747075206
 31
0.0
  0
LINE
  5
3670
  8
0
 10
282.97844479635961
 20
73.420141747075135
 30
0.0
 11
284.4454825895258
 21
70.879332593704788
 31
0.0
  0
LINE
  5
3671
  8
0
 10
275.08507952511962
 20
72.996992565842362
 30
0.0
 11
280.27158391846319
 21
78.108239713942197
 31
0.0
  0
LINE
  5
3672
  8
0
 10
278.38314930609579
 20
69.410559749283692
 30
0.0
 11
281.70389706485082
 21
75.627571274596761
 31
0.0
  0
ARC
  5
3673
  8
0
 10
271.00799407196178
 20
75.089902040106324
 30
0.0
 40
16.040503085884819
 50
310.40787634442319
 51
314.81458505969141
  0
ARC
  5
3674
  8
0
 10
300.13448234543858
 20
92.722664222822985
 30
0.0
 40
31.88376866014449
 50
230.97452744872339
 51
239.1042526304775
  0
LINE
  5
3675
  8
0
 10
283.76288251444868
 20
65.363106058489535
 30
0.0
 11
284.44548258952568
 21
70.87933259370493
 31
0.0
  0
ARC
  5
3676
  8
0
 10
300.13448234543858
 20
92.722664222822985
 30
0.0
 40
31.88376866014449
 50
218.21939711183461
 51
226.9836454745251
  0
LINE
  5
3677
  8
0
 10
280.27158391846319
 20
78.108239713942197
 30
0.0
 11
281.70389706485071
 21
75.627571274596761
 31
0.0
  0
LINE
  5
3678
  8
0
 10
282.14583503014711
 20
79.190413560441783
 30
0.0
 11
283.5781481765348
 21
76.70974512109629
 31
0.0
  0
LINE
  5
3679
  8
0
 10
277.30362570637368
 20
83.248540411869357
 30
0.0
 11
279.15340350534598
 21
80.044851737164805
 31
0.0
  0
LINE
  5
367A
  8
0
 10
273.79159487652572
 20
74.760844054092786
 30
0.0
 11
279.15340350534598
 21
80.044851737164876
 31
0.0
  0
ARC
  5
367B
  8
0
 10
236.96729213053561
 20
75.795049309974303
 30
0.0
 40
34.0480046601445
 50
343.0998405281556
 51
358.81329752914093
  0
LINE
  5
367C
  8
0
 10
268.52381873319291
 20
71.238698494970492
 30
0.0
 11
261.47644136344411
 21
73.071496203251826
 31
0.0
  0
LINE
  5
367D
  8
0
 10
267.46110629238581
 20
66.483658337828587
 30
0.0
 11
261.47652671471741
 21
70.207017743218614
 31
0.0
  0
ARC
  5
367E
  8
0
 10
236.96729213053561
 20
75.795049309974246
 30
0.0
 40
31.88376866014449
 50
343.01976894650142
 51
351.78401730918711
  0
LINE
  5
367F
  8
0
 10
261.47644136344411
 20
73.071496203251826
 30
0.0
 11
261.47652671471752
 21
70.207017743218557
 31
0.0
  0
LINE
  5
3680
  8
0
 10
266.73911143030682
 20
64.383937201359032
 30
0.0
 11
261.47660266477908
 21
67.658053829566597
 31
0.0
  0
LINE
  5
3681
  8
0
 10
261.47660266477908
 20
67.658053829566597
 30
0.0
 11
261.47669008528771
 21
64.724129659996777
 31
0.0
  0
ARC
  5
3682
  8
0
 10
260.39308296462173
 20
114.7005685447357
 30
0.0
 40
33.545658000000003
 50
271.85027885573987
 51
283.15313556528361
  0
LINE
  5
3683
  8
0
 10
268.76195398195563
 20
73.412995211623382
 30
0.0
 11
261.47637473128168
 21
75.30774161919561
 31
0.0
  0
ARC
  5
3684
  8
0
 10
260.39308296462173
 20
114.7005685447357
 30
0.0
 40
35.709894000000013
 50
271.73820878644858
 51
283.25401675191029
  0
ARC
  5
3685
  8
0
 10
236.96729213053561
 20
75.795049309974246
 30
0.0
 40
31.88376866014449
 50
355.71540824770358
 51
7.473095786081573
  0
LINE
  5
3686
  8
0
 10
261.47626450336759
 20
79.007106296792344
 30
0.0
 11
261.47637473128168
 21
75.30774161919561
 31
0.0
  0
ARC
  5
3687
  8
0
 10
305.79914638639229
 20
113.86599819605721
 30
0.0
 40
34.0480046601445
 50
75.288897369489192
 51
91.564361193524874
  0
ARC
  5
3688
  8
0
 10
309.4553486250195
 20
113.20659733313821
 30
0.0
 40
36.212240660144509
 50
82.716946246344037
 51
97.863594593302992
  0
ARC
  5
3689
  8
0
 10
313.29352211032608
 20
112.9881828915908
 30
0.0
 40
38.376476660144498
 50
89.774546447348115
 51
103.95429836295931
  0
ARC
  5
368A
  8
0
 10
317.9043182069114
 20
113.35243812481239
 30
0.0
 40
40.648924460144492
 50
97.510270185957637
 51
110.7790207847128
  0
ARC
  5
368B
  8
0
 10
289.38947086479402
 20
143.6986844749205
 30
0.0
 40
25.246949689350831
 50
28.929450878357521
 51
35.950406668999811
  0
ARC
  5
368C
  8
0
 10
322.74539785656998
 20
114.4932140693934
 30
0.0
 40
42.921372260144501
 50
105.2081248023821
 51
117.69000761986349
  0
LINE
  5
368D
  8
0
 10
306.2424535090106
 20
142.42308026664091
 30
0.0
 11
311.20465608892408
 21
145.28820640664361
 31
0.0
  0
ARC
  5
368E
  8
0
 10
305.79914638639218
 20
113.86599819605721
 30
0.0
 40
31.88376866014449
 50
80.239042723781694
 51
86.711031783970043
  0
LINE
  5
368F
  8
0
 10
310.85312909614458
 20
140.11219814684119
 30
0.0
 11
307.32462735551019
 21
140.54882915495699
 31
0.0
  0
LINE
  5
3690
  8
0
 10
307.32462735551019
 20
140.54882915495699
 30
0.0
 11
312.28682993542361
 21
143.41395529495969
 31
0.0
  0
LINE
  5
3691
  8
0
 10
307.4356621663286
 20
113.61985224585381
 30
0.0
 11
310.36958633589842
 21
113.6199396663624
 31
0.0
  0
LINE
  5
3692
  8
0
 10
307.43559767979082
 20
115.7840882448931
 30
0.0
 11
310.36952184936058
 21
115.7841756654017
 31
0.0
  0
LINE
  5
3693
  8
0
 10
310.7100923968224
 20
108.357538603739
 30
0.0
 11
307.4356621663286
 21
113.61985224585381
 31
0.0
  0
LINE
  5
3694
  8
0
 10
307.32616764469799
 20
88.855104766721524
 30
0.0
 11
312.28854095694379
 21
85.990274343793146
 31
0.0
  0
LINE
  5
3695
  8
0
 10
310.85464335896381
 20
89.291946047674116
 30
0.0
 11
307.32616764469788
 21
88.855104766721524
 31
0.0
  0
LINE
  5
3696
  8
0
 10
310.7097143079983
 20
121.0465970104207
 30
0.0
 11
307.43559767979082
 21
115.7840882448931
 31
0.0
  0
ARC
  5
3697
  8
0
 10
309.52342518433568
 20
144.62662922931111
 30
0.0
 40
40.648924460144492
 50
279.22439363630991
 51
292.4931442350657
  0
ARC
  5
3698
  8
0
 10
305.34834961032323
 20
142.6364366581013
 30
0.0
 40
38.376476660144498
 50
286.04911605806421
 51
300.22886797367562
  0
ARC
  5
3699
  8
0
 10
300.00438197213418
 20
104.08801797029111
 30
0.0
 40
25.246949689350831
 50
328.92945087835642
 51
335.95040666899928
  0
LINE
  5
369A
  8
0
 10
323.9929150661394
 20
96.216629997739815
 30
0.0
 11
315.29403112506719
 21
99.237825393857236
 31
0.0
  0
LINE
  5
369B
  8
0
 10
324.71506351234558
 20
98.912045942269458
 30
0.0
 11
315.67090807773218
 21
100.6445169856979
 31
0.0
  0
ARC
  5
369C
  8
0
 10
298.1179393919432
 20
55.593174382299587
 30
0.0
 40
45.626667260144501
 50
56.862562697314331
 51
68.473385784044851
  0
ARC
  5
369D
  8
0
 10
322.61553755123629
 20
147.03035330047271
 30
0.0
 40
45.626667260144501
 50
261.53002863698009
 51
273.14085172371102
  0
ARC
  5
369E
  8
0
 10
314.28622573381148
 20
146.05951193769531
 30
0.0
 40
42.921372260144501
 50
272.31340680116108
 51
284.79528961864071
  0
ARC
  5
369F
  8
0
 10
300.00438197213418
 20
104.08801797029111
 30
0.0
 40
25.246949689350831
 50
341.83371883738948
 51
348.1696955836349
  0
ARC
  5
36A0
  8
0
 10
300.00438197213418
 20
104.08801797029111
 30
0.0
 40
25.246949689350831
 50
354.05300775202483
 51
1.073963542665066
  0
ARC
  5
36A1
  8
0
 10
300.00438197213418
 20
104.08801797029111
 30
0.0
 40
16.040503085884819
 50
324.03583174127527
 51
328.51962601072808
  0
ARC
  5
36A2
  8
0
 10
287.98118539449843
 20
64.220312611928264
 30
0.0
 40
40.648924460144492
 50
37.510270185959492
 51
50.779020784713637
  0
ARC
  5
36A3
  8
0
 10
291.38966616736099
 20
60.598202625870563
 30
0.0
 40
42.921372260144501
 50
45.208124802382052
 51
57.690007619865568
  0
ARC
  5
36A4
  8
0
 10
283.63039877305448
 20
71.464414509811462
 30
0.0
 40
36.212240660144509
 50
22.716946246343142
 51
37.863594593304079
  0
ARC
  5
36A5
  8
0
 10
285.36033306077451
 20
68.031251546630443
 30
0.0
 40
38.376476660144498
 50
29.77454644734647
 51
43.954298362958312
  0
ARC
  5
36A6
  8
0
 10
300.00438197213418
 20
104.08801797029111
 30
0.0
 40
25.246949689350831
 50
317.67563331051412
 51
323.22009399953862
  0
ARC
  5
36A7
  8
0
 10
300.00438197213418
 20
104.08801797029111
 30
0.0
 40
16.040503085884819
 50
315.1888293613311
 51
319.5955380766012
  0
ARC
  5
36A8
  8
0
 10
282.37335555230612
 20
74.960478961295792
 30
0.0
 40
31.88376866014449
 50
20.239042723780621
 51
26.71103178397086
  0
ARC
  5
36A9
  8
0
 10
300.00438197213418
 20
104.08801797029111
 30
0.0
 40
16.040503085884819
 50
1.4837884102970931
 51
5.9675826797484186
  0
ARC
  5
36AA
  8
0
 10
300.00438197213418
 20
104.08801797029111
 30
0.0
 40
16.040503085884819
 50
352.16486604126402
 51
356.73026678966238
  0
ARC
  5
36AB
  8
0
 10
300.00438197213418
 20
104.08801797029111
 30
0.0
 40
16.040503085884819
 50
342.39989728206689
 51
347.60351713895591
  0
ARC
  5
36AC
  8
0
 10
300.00438197213418
 20
104.08801797029111
 30
0.0
 40
16.040503085884819
 50
333.27314763136258
 51
337.83854837976003
  0
ARC
  5
36AD
  8
0
 10
302.133726730462
 20
140.52800588810661
 30
0.0
 40
36.212240660144509
 50
292.13981982771941
 51
307.28646817468251
  0
ARC
  5
36AE
  8
0
 10
299.29720611975029
 20
138.12867782950991
 30
0.0
 40
34.0480046601445
 50
298.43905322749862
 51
314.71451705153498
  0
ARC
  5
36AF
  8
0
 10
299.29860219938308
 20
91.274777710649545
 30
0.0
 40
34.0480046601445
 50
45.288897369489113
 51
61.564361193524213
  0
ARC
  5
36B0
  8
0
 10
302.13526578794841
 20
88.875618692770729
 30
0.0
 40
36.212240660144509
 50
52.716946246342069
 51
67.863594593306544
  0
ARC
  5
36B1
  8
0
 10
305.35001430958209
 20
86.767379495184059
 30
0.0
 40
38.376476660144498
 50
59.774546447350261
 51
73.954298362959719
  0
ARC
  5
36B2
  8
0
 10
309.52520847750583
 20
84.777435732322715
 30
0.0
 40
40.648924460144492
 50
67.510270185957367
 51
80.779020784711832
  0
ARC
  5
36B3
  8
0
 10
314.2880944081445
 20
83.344836855526722
 30
0.0
 40
42.921372260144501
 50
75.208124802380027
 51
87.690007619865185
  0
ARC
  5
36B4
  8
0
 10
322.61746406602077
 20
82.374491862226705
 30
0.0
 40
45.626667260144501
 50
86.862562697313663
 51
98.473385784043884
  0
ARC
  5
36B5
  8
0
 10
300.00374946925109
 20
125.31547965207579
 30
0.0
 40
25.246949689350831
 50
337.05109744931332
 51
342.4152909396168
  0
ARC
  5
36B6
  8
0
 10
300.00438197213418
 20
104.08801797029111
 30
0.0
 40
25.246949689350831
 50
17.58812348140636
 51
22.952316971709489
  0
ARC
  5
36B7
  8
0
 10
300.00438197213418
 20
104.08801797029111
 30
0.0
 40
25.246949689350831
 50
6.7833204214824052
 51
12.32778111050826
  0
ARC
  5
36B8
  8
0
 10
300.00374946925109
 20
125.31547965207579
 30
0.0
 40
25.246949689350831
 50
347.67563331051531
 51
353.22009399954089
  0
ARC
  5
36B9
  8
0
 10
300.00374946925109
 20
125.31547965207579
 30
0.0
 40
25.246949689350831
 50
358.9294508783583
 51
5.9504066689984132
  0
LINE
  5
36BA
  8
0
 10
314.80521452425728
 20
119.13370228033941
 30
0.0
 11
310.36952184936052
 21
115.78417566540161
 31
0.0
  0
ARC
  5
36BB
  8
0
 10
299.29860219938308
 20
91.274777710649545
 30
0.0
 40
31.88376866014449
 50
50.239042723780493
 51
56.711031783970427
  0
LINE
  5
36BC
  8
0
 10
316.7983874292554
 20
117.92683618428261
 30
0.0
 11
313.961058464541
 21
115.7842826804229
 31
0.0
  0
LINE
  5
36BD
  8
0
 10
313.96112295107878
 20
113.6200466813836
 30
0.0
 11
319.69107951400991
 21
113.62021741371611
 31
0.0
  0
LINE
  5
36BE
  8
0
 10
313.961058464541
 20
115.7842826804229
 30
0.0
 11
319.69101502747208
 21
115.7844534127554
 31
0.0
  0
LINE
  5
36BF
  8
0
 10
316.79857959170789
 20
111.4776622659581
 30
0.0
 11
313.96112295107878
 21
113.6200466813837
 31
0.0
  0
ARC
  5
36C0
  8
0
 10
299.2972061197504
 20
138.12867782950991
 30
0.0
 40
31.88376866014449
 50
303.29238263705349
 51
309.7643716972413
  0
ARC
  5
36C1
  8
0
 10
300.00438197213418
 20
104.08801797029111
 30
0.0
 40
16.040503085884819
 50
10.407876344421959
 51
14.814585059689129
  0
ARC
  5
36C2
  8
0
 10
299.2972061197504
 20
138.12867782950991
 30
0.0
 40
31.88376866014449
 50
290.97452744872379
 51
299.10425263047591
  0
LINE
  5
36C3
  8
0
 10
314.8054786108861
 20
110.2706773931129
 30
0.0
 11
310.3695863358983
 21
113.6199396663625
 31
0.0
  0
ARC
  5
36C4
  8
0
 10
300.00374946925109
 20
125.31547965207579
 30
0.0
 40
16.040503085884819
 50
345.18882936133417
 51
349.59553807660137
  0
ARC
  5
36C5
  8
0
 10
300.00374946925109
 20
125.31547965207579
 30
0.0
 40
16.040503085884819
 50
354.03583174127488
 51
358.51962601072631
  0
ARC
  5
36C6
  8
0
 10
300.00374946925109
 20
125.31547965207579
 30
0.0
 40
16.040503085884819
 50
3.2731476313610228
 51
7.8385483797592288
  0
ARC
  5
36C7
  8
0
 10
299.29860219938308
 20
91.274777710649545
 30
0.0
 40
31.88376866014449
 50
60.899161790546167
 51
69.028886972299532
  0
ARC
  5
36C8
  8
0
 10
300.00374946925109
 20
125.31547965207579
 30
0.0
 40
25.246949689350831
 50
24.053007752023611
 51
31.07396354266659
  0
LINE
  5
36C9
  8
0
 10
324.71412251445912
 20
130.49292425180579
 30
0.0
 11
315.6700703388592
 21
128.7599142441039
 31
0.0
  0
LINE
  5
36CA
  8
0
 10
323.99181344191231
 20
133.18829715663711
 30
0.0
 11
315.29310955804772
 21
130.16658337426031
 31
0.0
  0
ARC
  5
36CB
  8
0
 10
298.11441694458512
 20
173.81021073539421
 30
0.0
 40
45.626667260144501
 50
291.53002863698009
 51
303.14085172370761
  0
ARC
  5
36CC
  8
0
 10
300.00374946925109
 20
125.31547965207579
 30
0.0
 40
25.246949689350831
 50
11.83371883738854
 51
18.16969558363451
  0
ARC
  5
36CD
  8
0
 10
287.97817708122938
 20
165.1824684426297
 30
0.0
 40
40.648924460144492
 50
309.22439363631059
 51
322.49314423506479
  0
ARC
  5
36CE
  8
0
 10
285.35755185701959
 20
161.37137333053261
 30
0.0
 40
38.376476660144498
 50
316.04911605806478
 51
330.22886797367698
  0
ARC
  5
36CF
  8
0
 10
283.62782216447039
 20
157.93810728166599
 30
0.0
 40
36.212240660144509
 50
322.13981982771861
 51
337.28646817468012
  0
ARC
  5
36D0
  8
0
 10
282.3709872865345
 20
154.44196792555249
 30
0.0
 40
34.0480046601445
 50
328.43905322750038
 51
344.71451705153532
  0
ARC
  5
36D1
  8
0
 10
291.38644199604192
 20
168.80478154347179
 30
0.0
 40
42.921372260144501
 50
302.31340680115738
 51
314.79528961864179
  0
ARC
  5
36D2
  8
0
 10
300.00374946925109
 20
125.31547965207579
 30
0.0
 40
16.040503085884819
 50
31.48378841029518
 51
35.967582679746528
  0
ARC
  5
36D3
  8
0
 10
300.00374946925109
 20
125.31547965207579
 30
0.0
 40
16.040503085884819
 50
40.407876344422327
 51
44.814585059692213
  0
ARC
  5
36D4
  8
0
 10
300.00374946925109
 20
125.31547965207579
 30
0.0
 40
16.040503085884819
 50
22.164866041263551
 51
26.730266789661691
  0
ARC
  5
36D5
  8
0
 10
300.00374946925109
 20
125.31547965207579
 30
0.0
 40
16.040503085884819
 50
12.39989728206756
 51
17.60351713895675
  0
ARC
  5
36D6
  8
0
 10
300.00374946925109
 20
125.31547965207579
 30
0.0
 40
25.246949689350831
 50
47.588123481407798
 51
52.952316971708512
  0
ARC
  5
36D7
  8
0
 10
300.00374946925109
 20
125.31547965207579
 30
0.0
 40
25.246949689350831
 50
36.783320421485378
 51
42.327781110509449
  0
ARC
  5
36D8
  8
0
 10
289.38947086479402
 20
143.6986844749205
 30
0.0
 40
25.246949689350831
 50
7.0510974493144056
 51
12.41529093961759
  0
ARC
  5
36D9
  8
0
 10
282.3709872865345
 20
154.4419679255526
 30
0.0
 40
31.88376866014449
 50
333.29238263705332
 51
339.76437169724289
  0
ARC
  5
36DA
  8
0
 10
289.38947086479402
 20
143.6986844749205
 30
0.0
 40
25.246949689350831
 50
17.675633310513341
 51
23.220093999539461
  0
ARC
  5
36DB
  8
0
 10
260.39308296462173
 20
114.7005685447357
 30
0.0
 40
15.65210669545232
 50
34.9157439250857
 51
85.087670495937516
  0
ARC
  5
36DC
  8
0
 10
260.39308296462173
 20
114.7005685447357
 30
0.0
 40
17.81634269545232
 50
33.35789129543118
 51
56.6455231255933
  0
ARC
  5
36DD
  8
0
 10
255.3911021470571
 20
125.8904196919257
 30
0.0
 40
7.7218264627020163
 50
321.51964514840228
 51
34.78023631873743
  0
ARC
  5
36DE
  8
0
 10
260.39308296462173
 20
114.7005685447357
 30
0.0
 40
30.299303999999999
 50
17.04842030818422
 51
27.954994112839589
  0
ARC
  5
36DF
  8
0
 10
260.39308296462173
 20
114.7005685447357
 30
0.0
 40
33.545658000000003
 50
16.850278855739901
 51
28.153135565283218
  0
LINE
  5
36E0
  8
0
 10
300.33280745526457
 20
128.09908045663971
 30
0.0
 11
295.04879977219258
 21
133.46088908546
 31
0.0
  0
ARC
  5
36E1
  8
0
 10
260.39308296462173
 20
114.7005685447357
 30
0.0
 40
35.709894000000013
 50
16.749397669111101
 51
28.26520563457419
  0
ARC
  5
36E2
  8
0
 10
300.00374946925098
 20
125.31547965207569
 30
0.0
 40
9.3084823458983124
 50
350.95656902864829
 51
39.046845392375133
  0
ARC
  5
36E3
  8
0
 10
282.3709872865345
 20
154.4419679255526
 30
0.0
 40
34.0480046601445
 50
301.1901168918825
 51
316.90357389286578
  0
ARC
  5
36E4
  8
0
 10
282.45794350864082
 20
121.6650940391612
 30
0.0
 40
7.7218264627020163
 50
84.995657200086924
 51
158.48376927262299
  0
ARC
  5
36E5
  8
0
 10
260.39308296462173
 20
114.7005685447357
 30
0.0
 40
30.299303999999999
 50
317.04842030818588
 51
327.95499411283902
  0
ARC
  5
36E6
  8
0
 10
260.39308296462173
 20
114.7005685447357
 30
0.0
 40
27.052949999999999
 50
332.80532139455022
 51
357.19809302647297
  0
ARC
  5
36E7
  8
0
 10
260.39308296462173
 20
114.7005685447357
 30
0.0
 40
33.545658000000003
 50
316.8502788557397
 51
328.15313556528179
  0
ARC
  5
36E8
  8
0
 10
282.98377741129838
 20
119.7028890668945
 30
0.0
 40
7.7218264627020163
 50
231.51964514840009
 51
305.00775722093601
  0
ARC
  5
36E9
  8
0
 10
282.98407547391599
 20
109.699594276203
 30
0.0
 40
7.7218264627020163
 50
54.995657200086967
 51
128.48376927262481
  0
ARC
  5
36EA
  8
0
 10
260.39308296462173
 20
114.7005685447357
 30
0.0
 40
27.052949999999999
 50
2.805321394550174
 51
27.198093026472701
  0
ARC
  5
36EB
  8
0
 10
299.2972061197504
 20
138.12867782950991
 30
0.0
 40
31.88376866014449
 50
262.53031863494039
 51
274.28800617331859
  0
LINE
  5
36EC
  8
0
 10
296.9865963477381
 20
94.824248268777183
 30
0.0
 11
299.46735013835689
 21
93.392082955131542
 31
0.0
  0
LINE
  5
36ED
  8
0
 10
300.33360584037678
 20
101.30443678018599
 30
0.0
 11
295.04991769235312
 21
95.942313271603766
 31
0.0
  0
LINE
  5
36EE
  8
0
 10
302.0975344079821
 20
100.01105724689459
 30
0.0
 11
296.9865963477381
 21
94.824248268777183
 31
0.0
  0
ARC
  5
36EF
  8
0
 10
282.37335555230612
 20
74.960478961295792
 30
0.0
 40
31.88376866014449
 50
55.715408247706961
 51
67.473095786083633
  0
ARC
  5
36F0
  8
0
 10
305.79909657130861
 20
115.5378447704239
 30
0.0
 40
31.88376866014449
 50
248.21939711183541
 51
256.98364547452212
  0
LINE
  5
36F1
  8
0
 10
295.90453419519832
 20
92.949932670555484
 30
0.0
 11
298.38528798581717
 21
91.517767356909843
 31
0.0
  0
LINE
  5
36F2
  8
0
 10
305.68416375967848
 20
96.713201197666876
 30
0.0
 11
299.46735013835689
 21
93.392082955131485
 31
0.0
  0
LINE
  5
36F3
  8
0
 10
307.14157817368482
 20
95.038074737469827
 30
0.0
 11
301.67485561594009
 21
92.1176667729884
 31
0.0
  0
LINE
  5
36F4
  8
0
 10
301.6748556159402
 20
92.1176667729884
 30
0.0
 11
304.21575218981911
 21
90.650780396584707
 31
0.0
  0
LINE
  5
36F5
  8
0
 10
309.731938037129
 20
91.333709198324613
 30
0.0
 11
304.215752189819
 21
90.650780396584707
 31
0.0
  0
ARC
  5
36F6
  8
0
 10
282.37335555230612
 20
74.960478961295792
 30
0.0
 40
31.88376866014449
 50
30.89916179054423
 51
39.028886972300498
  0
LINE
  5
36F7
  8
0
 10
300.59279346340043
 20
90.243351174766701
 30
0.0
 11
303.13369003727939
 21
88.776464798362994
 31
0.0
  0
LINE
  5
36F8
  8
0
 10
298.61794182983169
 20
84.473303560990715
 30
0.0
 11
298.38528798581717
 21
91.517767356909843
 31
0.0
  0
ARC
  5
36F9
  8
0
 10
282.37335555230612
 20
74.960478961295792
 30
0.0
 40
31.88376866014449
 50
43.019768946500001
 51
51.784017309188172
  0
ARC
  5
36FA
  8
0
 10
282.37335555230612
 20
74.960478961295735
 30
0.0
 40
34.0480046601445
 50
43.099840528157358
 51
58.81329752914133
  0
ARC
  5
36FB
  8
0
 10
299.2972061197504
 20
138.12867782950991
 30
0.0
 40
34.0480046601445
 50
271.19011689188301
 51
286.90357389286731
  0
ARC
  5
36FC
  8
0
 10
300.00438197213418
 20
104.08801797029111
 30
0.0
 40
9.3084823458983124
 50
320.95656902864857
 51
9.0468453923753742
  0
LINE
  5
36FD
  8
0
 10
290.7640566371947
 20
95.917584552006588
 30
0.0
 11
293.96785553981329
 21
94.067997673382109
 31
0.0
  0
ARC
  5
36FE
  8
0
 10
260.39308296462173
 20
114.7005685447357
 30
0.0
 40
35.709894000000013
 50
316.74939766911513
 51
328.26520563457211
  0
ARC
  5
36FF
  8
0
 10
305.79909657130861
 20
115.5378447704239
 30
0.0
 40
31.88376866014449
 50
232.53031863494149
 51
244.28800617331819
  0
LINE
  5
3700
  8
0
 10
291.96639689856039
 20
86.811008471639411
 30
0.0
 11
293.96785553981329
 21
94.067997673382166
 31
0.0
  0
LINE
  5
3701
  8
0
 10
293.96851320777313
 20
85.930210598608483
 30
0.0
 11
295.90453419519838
 21
92.949932670555484
 31
0.0
  0
LINE
  5
3702
  8
0
 10
289.36148405897052
 20
105.8191519391853
 30
0.0
 11
292.49905414527069
 21
104.9785427681654
 31
0.0
  0
ARC
  5
3703
  8
0
 10
260.39308296462173
 20
114.7005685447357
 30
0.0
 40
33.545658000000003
 50
331.85027885574038
 51
343.15313556528349
  0
LINE
  5
3704
  8
0
 10
291.84611878973442
 20
97.791900150228287
 30
0.0
 11
295.04991769235312
 21
95.942313271603837
 31
0.0
  0
ARC
  5
3705
  8
0
 10
260.39308296462173
 20
114.7005685447357
 30
0.0
 40
35.709894000000013
 50
331.73820878644852
 51
343.25401675191262
  0
LINE
  5
3706
  8
0
 10
287.15779211548733
 20
100.49852056023749
 30
0.0
 11
289.97088643068889
 21
98.874491558455475
 31
0.0
  0
LINE
  5
3707
  8
0
 10
286.07572996294749
 20
98.624204962015796
 30
0.0
 11
288.88882427814917
 21
97.000175960233804
 31
0.0
  0
ARC
  5
3708
  8
0
 10
260.39308296462173
 20
114.7005685447357
 30
0.0
 40
30.299303999999999
 50
332.04842030818429
 51
342.95499411283942
  0
ARC
  5
3709
  8
0
 10
282.3709872865345
 20
154.4419679255526
 30
0.0
 40
31.88376866014449
 50
292.53031863494118
 51
304.28800617331711
  0
ARC
  5
370A
  8
0
 10
299.29860219938308
 20
91.274777710649545
 30
0.0
 40
31.88376866014449
 50
85.715408247704715
 51
97.473095786083547
  0
LINE
  5
370B
  8
0
 10
296.08660969910278
 20
113.6195140844423
 30
0.0
 11
299.78597437669953
 21
113.61962431235639
 31
0.0
  0
LINE
  5
370C
  8
0
 10
296.08654521256511
 20
115.78375008348161
 30
0.0
 11
299.78590989016169
 21
115.7838603113957
 31
0.0
  0
LINE
  5
370D
  8
0
 10
301.680656297734
 20
123.0694395620695
 30
0.0
 11
299.78590989016169
 21
115.7838603113956
 31
0.0
  0
LINE
  5
370E
  8
0
 10
303.85495301438692
 20
122.831304313307
 30
0.0
 11
302.02215530610562
 21
115.7839269435581
 31
0.0
  0
LINE
  5
370F
  8
0
 10
308.6099931715288
 20
121.7685918724997
 30
0.0
 11
304.8866337661388
 21
115.7840122948313
 31
0.0
  0
ARC
  5
3710
  8
0
 10
299.2972061197504
 20
138.12867782950991
 30
0.0
 40
31.88376866014449
 50
278.2193971118366
 51
286.98364547452292
  0
LINE
  5
3711
  8
0
 10
302.02221979264328
 20
113.61969094451869
 30
0.0
 11
304.88669825267658
 21
113.61977629579209
 31
0.0
  0
LINE
  5
3712
  8
0
 10
302.02215530610562
 20
115.7839269435581
 30
0.0
 11
304.8866337661388
 21
115.7840122948315
 31
0.0
  0
LINE
  5
3713
  8
0
 10
308.61041428984078
 20
107.6354186144937
 30
0.0
 11
304.88669825267658
 21
113.61977629579221
 31
0.0
  0
LINE
  5
3714
  8
0
 10
301.68115494962188
 20
106.33415798803139
 30
0.0
 11
299.78597437669953
 21
113.61962431235651
 31
0.0
  0
LINE
  5
3715
  8
0
 10
303.85543747124672
 20
106.57242280899369
 30
0.0
 11
302.02221979264328
 21
113.61969094451879
 31
0.0
  0
ARC
  5
3716
  8
0
 10
299.29860219938308
 20
91.274777710649545
 30
0.0
 40
31.88376866014449
 50
73.019768946499198
 51
81.784017309186055
  0
ARC
  5
3717
  8
0
 10
299.29860219938303
 20
91.274777710649545
 30
0.0
 40
34.0480046601445
 50
73.099840528156236
 51
88.813297529141664
  0
ARC
  5
3718
  8
0
 10
260.39308296462173
 20
114.7005685447357
 30
0.0
 40
33.545658000000003
 50
1.8502788557418379
 51
13.15313556528368
  0
ARC
  5
3719
  8
0
 10
260.39308296462173
 20
114.7005685447357
 30
0.0
 40
30.299303999999999
 50
2.048420308183788
 51
12.954994112838961
  0
ARC
  5
371A
  8
0
 10
260.39308296462173
 20
114.7005685447357
 30
0.0
 40
35.709894000000013
 50
1.738208786447996
 51
13.25401675191033
  0
LINE
  5
371B
  8
0
 10
290.67308949295989
 20
113.6193527807882
 30
0.0
 11
293.92131513405718
 21
113.6194495663631
 31
0.0
  0
LINE
  5
371C
  8
0
 10
290.67302500642222
 20
115.7835887798274
 30
0.0
 11
293.9212506475194
 21
115.78368556540229
 31
0.0
  0
LINE
  5
371D
  8
0
 10
289.92156726440612
 20
107.9096600751859
 30
0.0
 11
293.05913735070641
 21
107.0690509041661
 31
0.0
  0
ARC
  5
371E
  8
0
 10
260.39308296462173
 20
114.7005685447357
 30
0.0
 40
33.545658000000003
 50
346.8502788557393
 51
358.15313556528491
  0
ARC
  5
371F
  8
0
 10
260.39308296462173
 20
114.7005685447357
 30
0.0
 40
35.709894000000013
 50
346.74939766911262
 51
358.2652056345753
  0
ARC
  5
3720
  8
0
 10
260.39308296462173
 20
114.7005685447357
 30
0.0
 40
30.299303999999999
 50
347.0484203081844
 51
357.95499411283959
  0
LINE
  5
3721
  8
0
 10
289.92116252211991
 20
121.4932366899105
 30
0.0
 11
293.05868250852001
 21
122.33403283630309
 31
0.0
  0
LINE
  5
3722
  8
0
 10
289.36095473825981
 20
123.5837114452229
 30
0.0
 11
292.4984747246599
 21
124.42450759161559
 31
0.0
  0
ARC
  5
3723
  8
0
 10
272.58476873143701
 20
113.4374854283941
 30
0.0
 40
7.7218264627020163
 50
201.5196451484006
 51
274.78023631873958
  0
ARC
  5
3724
  8
0
 10
255.39176899149481
 20
103.510419334928
 30
0.0
 40
7.7218264627020163
 50
325.2231781022856
 51
38.483769272622801
  0
ARC
  5
3725
  8
0
 10
277.45696924010809
 20
99.074101529866923
 30
0.0
 40
7.7218264627020163
 50
24.995657200088171
 51
98.483769272623732
  0
ARC
  5
3726
  8
0
 10
267.3576084590473
 20
92.635708000716505
 30
0.0
 40
7.7218264627020163
 50
354.99565720008701
 51
68.483769272621529
  0
ARC
  5
3727
  8
0
 10
260.39308296462173
 20
114.7005685447357
 30
0.0
 40
15.65210669545232
 50
274.91574392508591
 51
325.08767049593928
  0
ARC
  5
3728
  8
0
 10
260.39308296462173
 20
114.7005685447357
 30
0.0
 40
17.81634269545232
 50
303.35789129542968
 51
326.64552312559113
  0
ARC
  5
3729
  8
0
 10
260.39308296462173
 20
114.7005685447357
 30
0.0
 40
30.299303999999999
 50
287.04842030818492
 51
297.95499411284112
  0
ARC
  5
372A
  8
0
 10
260.39308296462173
 20
114.7005685447357
 30
0.0
 40
27.052949999999999
 50
302.80532139455158
 51
327.19809302647252
  0
ARC
  5
372B
  8
0
 10
260.39308296462173
 20
114.7005685447357
 30
0.0
 40
30.299303999999999
 50
302.04842030818412
 51
312.9549941128401
  0
ARC
  5
372C
  8
0
 10
260.39308296462173
 20
114.7005685447357
 30
0.0
 40
33.545658000000003
 50
301.85027885574073
 51
313.15313556528213
  0
LINE
  5
372D
  8
0
 10
282.57004626871009
 20
94.055227145438522
 30
0.0
 11
284.8669570840903
 21
91.758453205531026
 31
0.0
  0
LINE
  5
372E
  8
0
 10
281.03974591656947
 20
92.524835595561655
 30
0.0
 11
283.33665673194969
 21
90.228061655654159
 31
0.0
  0
LINE
  5
372F
  8
0
 10
276.470977021924
 20
89.018879628961855
 30
0.0
 11
278.09517366123919
 21
86.205882099335184
 31
0.0
  0
LINE
  5
3730
  8
0
 10
274.59672591024008
 20
87.936705782462354
 30
0.0
 11
276.22092254955533
 21
85.123708252835684
 31
0.0
  0
ARC
  5
3731
  8
0
 10
282.4583585056551
 20
107.7373579714591
 30
0.0
 40
7.7218264627020163
 50
201.5196451484006
 51
275.0077572209359
  0
ARC
  5
3732
  8
0
 10
276.02056683802181
 20
97.637613525861084
 30
0.0
 40
7.7218264627020163
 50
171.51964514840091
 51
245.00775722093411
  0
ARC
  5
3733
  8
0
 10
255.392108696089
 20
92.109576035441364
 30
0.0
 40
7.7218264627020163
 50
324.99565720008621
 51
38.483769272622801
  0
ARC
  5
3734
  8
0
 10
260.39308296462173
 20
114.7005685447357
 30
0.0
 40
27.052949999999999
 50
272.80532139455158
 51
297.19809302647388
  0
ARC
  5
3735
  8
0
 10
260.39308296462173
 20
114.7005685447357
 30
0.0
 40
17.81634269545232
 50
273.35789129542991
 51
296.64552312559277
  0
ARC
  5
3736
  8
0
 10
267.58337946589
 20
104.7742289868019
 30
0.0
 40
7.7218264627020163
 50
25.2231781022825
 51
98.483769272623732
  0
ARC
  5
3737
  8
0
 10
267.58278791387238
 20
124.6273365755841
 30
0.0
 40
7.7218264627020163
 50
261.51964514839932
 51
334.7802363187414
  0
ARC
  5
3738
  8
0
 10
260.39308296462173
 20
114.7005685447357
 30
0.0
 40
17.81634269545232
 50
3.3578912954316751
 51
26.645523125592241
  0
ARC
  5
3739
  8
0
 10
260.39308296462173
 20
114.7005685447357
 30
0.0
 40
15.65210669545232
 50
334.91574392508551
 51
25.087670495937932
  0
ARC
  5
373A
  8
0
 10
260.39308296462173
 20
114.7005685447357
 30
0.0
 40
17.81634269545232
 50
333.35789129543127
 51
356.64552312559169
  0
ARC
  5
373B
  8
0
 10
277.4560379834964
 20
130.3280524181358
 30
0.0
 40
7.7218264627020163
 50
261.51964514839932
 51
335.00775722093613
  0
ARC
  5
373C
  8
0
 10
260.39308296462173
 20
114.7005685447357
 30
0.0
 40
6.46957367127448
 50
279.27939635997728
 51
320.72401806104722
  0
ARC
  5
373D
  8
0
 10
260.39308296462173
 20
114.7005685447357
 30
0.0
 40
6.46957367127448
 50
339.27939635997433
 51
20.724018061048099
  0
ARC
  5
373E
  8
0
 10
272.58469343901692
 20
115.9643781966095
 30
0.0
 40
7.7218264627020163
 50
85.223178102284635
 51
158.48376927262299
  0
ARC
  5
373F
  8
0
 10
260.39308296462173
 20
114.7005685447357
 30
0.0
 40
6.46957367127448
 50
39.279396359975728
 51
80.724018061049193
  0
ARC
  5
3740
  8
0
 10
303.62923699954592
 20
137.93788435316861
 30
0.0
 40
36.212240660144509
 50
112.7169462463428
 51
127.86359459330561
  0
LINE
  5
3741
  8
0
 10
291.04481274659048
 20
155.1048619849843
 30
0.0
 11
284.85030033459071
 21
154.9002790435143
 31
0.0
  0
LINE
  5
3742
  8
0
 10
284.85030033459071
 20
154.9002790435143
 30
0.0
 11
286.31718671099441
 21
157.44117561739341
 31
0.0
  0
LINE
  5
3743
  8
0
 10
289.16344091074888
 20
148.275998787887
 30
0.0
 11
282.14371883880187
 21
150.21201977531231
 31
0.0
  0
LINE
  5
3744
  8
0
 10
290.62034794836671
 20
152.9254274099456
 30
0.0
 11
283.5758841524476
 21
152.69277356593111
 31
0.0
  0
LINE
  5
3745
  8
0
 10
288.28264303771789
 20
146.27388247867441
 30
0.0
 11
281.02565383597528
 21
148.2753411199273
 31
0.0
  0
ARC
  5
3746
  8
0
 10
260.39308296462173
 20
114.7005685447357
 30
0.0
 40
30.299303999999999
 50
32.048420308185037
 51
42.954994112837852
  0
ARC
  5
3747
  8
0
 10
260.39308296462173
 20
114.7005685447357
 30
0.0
 40
33.545658000000003
 50
31.850278855741259
 51
43.153135565282838
  0
ARC
  5
3748
  8
0
 10
259.55580673893348
 20
160.1065821514226
 30
0.0
 40
31.88376866014449
 50
322.53031863494101
 51
334.28800617331581
  0
ARC
  5
3749
  8
0
 10
300.13317254806162
 20
136.6808411324202
 30
0.0
 40
34.0480046601445
 50
105.28889736948911
 51
121.564361193525
  0
ARC
  5
374A
  8
0
 10
289.38947086479408
 20
143.6986844749205
 30
0.0
 40
9.3084823458983124
 50
20.956569028646509
 51
69.046845392373598
  0
ARC
  5
374B
  8
0
 10
259.55580673893348
 20
160.1065821514226
 30
0.0
 40
31.88376866014449
 50
338.21939711183637
 51
346.98364547452343
  0
ARC
  5
374C
  8
0
 10
259.55580673893348
 20
160.1065821514226
 30
0.0
 40
34.0480046601445
 50
331.1901168918838
 51
346.90357389286811
  0
ARC
  5
374D
  8
0
 10
305.79914638639218
 20
113.86599819605721
 30
0.0
 40
31.88376866014449
 50
103.01976894649989
 51
111.7840173091878
  0
ARC
  5
374E
  8
0
 10
305.79914638639229
 20
113.86599819605721
 30
0.0
 40
34.0480046601445
 50
103.09984052815589
 51
118.8132975291404
  0
LINE
  5
374F
  8
0
 10
295.90323794891572
 20
136.4533206102611
 30
0.0
 11
298.38390638826121
 21
137.8856337566487
 31
0.0
  0
LINE
  5
3750
  8
0
 10
296.98541179541519
 20
134.5790694985771
 30
0.0
 11
299.46608023476062
 21
136.0113826449647
 31
0.0
  0
LINE
  5
3751
  8
0
 10
302.09665894351502
 20
129.3925651052335
 30
0.0
 11
296.98541179541519
 21
134.5790694985771
 31
0.0
  0
LINE
  5
3752
  8
0
 10
300.59133591578268
 20
139.16018148815749
 30
0.0
 11
303.13214506915301
 21
140.62721928132359
 31
0.0
  0
LINE
  5
3753
  8
0
 10
298.6161404319144
 20
144.93011140457401
 30
0.0
 11
298.38390638826121
 21
137.88563375664859
 31
0.0
  0
LINE
  5
3754
  8
0
 10
300.79554970799961
 20
145.35470608084651
 30
0.0
 11
300.59133591578268
 21
139.16018148815741
 31
0.0
  0
LINE
  5
3755
  8
0
 10
305.68309176007369
 20
132.69063488620989
 30
0.0
 11
299.46608023476062
 21
136.0113826449647
 31
0.0
  0
ARC
  5
3756
  8
0
 10
282.3709872865345
 20
154.4419679255526
 30
0.0
 40
31.88376866014449
 50
308.21939711183489
 51
316.98364547452161
  0
LINE
  5
3757
  8
0
 10
307.14040634586712
 20
134.36584819496761
 30
0.0
 11
301.67350976228221
 21
137.28593037647349
 31
0.0
  0
LINE
  5
3758
  8
0
 10
301.67350976228232
 20
137.2859303764736
 30
0.0
 11
304.2143189156526
 21
138.7529681696397
 31
0.0
  0
LINE
  5
3759
  8
0
 10
309.73054545086791
 20
138.0703680945627
 30
0.0
 11
304.21431891565248
 21
138.7529681696397
 31
0.0
  0
ARC
  5
375A
  8
0
 10
282.3709872865345
 20
154.4419679255526
 30
0.0
 40
31.88376866014449
 50
320.97452744872328
 51
329.10425263047932
  0
ARC
  5
375B
  8
0
 10
305.79914638639218
 20
113.86599819605721
 30
0.0
 40
31.88376866014449
 50
90.899161790545435
 51
99.028886972300285
  0
LINE
  5
375C
  8
0
 10
305.29880430152508
 20
145.74584075796011
 30
0.0
 11
303.13214506915301
 21
140.62721928132359
 31
0.0
  0
ARC
  5
375D
  8
0
 10
289.38947086479402
 20
143.6986844749205
 30
0.0
 40
16.040503085884819
 50
15.18882936133342
 51
19.59553807660043
  0
LINE
  5
375E
  8
0
 10
307.62837571941691
 20
145.69725051230779
 30
0.0
 11
306.2424535090106
 21
142.4230802666408
 31
0.0
  0
ARC
  5
375F
  8
0
 10
260.39308296462173
 20
114.7005685447357
 30
0.0
 40
35.709894000000013
 50
31.738208786450191
 51
43.254016751908267
  0
LINE
  5
3760
  8
0
 10
291.96473482304287
 20
142.5920101132983
 30
0.0
 11
293.96662592569311
 21
135.3351401971438
 31
0.0
  0
LINE
  5
3761
  8
0
 10
293.96679863941068
 20
143.47292729665989
 30
0.0
 11
295.90323794891572
 21
136.45332061026099
 31
0.0
  0
ARC
  5
3762
  8
0
 10
305.79914638639218
 20
113.86599819605721
 30
0.0
 40
31.88376866014449
 50
115.71540824770349
 51
127.4730957860819
  0
LINE
  5
3763
  8
0
 10
290.7629372509885
 20
133.48536239817159
 30
0.0
 11
293.96662592569299
 21
135.3351401971438
 31
0.0
  0
LINE
  5
3764
  8
0
 10
291.84511109748797
 20
131.6111112864877
 30
0.0
 11
295.04879977219258
 21
133.46088908545991
 31
0.0
  0
LINE
  5
3765
  8
0
 10
286.07477188039547
 20
130.77846260203799
 30
0.0
 11
288.8877694100222
 21
132.40265924135321
 31
0.0
  0
LINE
  5
3766
  8
0
 10
287.15694572689512
 20
128.9042114903541
 30
0.0
 11
289.96994325652167
 21
130.52840812966929
 31
0.0
  0
ARC
  5
3767
  8
0
 10
289.38947086479402
 20
143.6986844749205
 30
0.0
 40
25.246949689350831
 50
66.783320421482571
 51
72.327781110509363
  0
ARC
  5
3768
  8
0
 10
259.0415252864417
 20
172.21172334591901
 30
0.0
 40
40.648924460144492
 50
339.22439363630849
 51
352.49314423506701
  0
ARC
  5
3769
  8
0
 10
289.38947086479402
 20
143.6986844749205
 30
0.0
 40
25.246949689350831
 50
41.833718837389313
 51
48.169695583632979
  0
LINE
  5
376A
  8
0
 10
306.22733490044419
 20
162.51077641955999
 30
0.0
 11
300.20489324820761
 21
155.54454357912391
 31
0.0
  0
ARC
  5
376B
  8
0
 10
263.50589536057799
 20
184.75168728043599
 30
0.0
 40
45.626667260144501
 50
321.53002863697952
 51
333.14085172371131
  0
ARC
  5
376C
  8
0
 10
260.18201273507538
 20
177.0528709691155
 30
0.0
 40
42.921372260144501
 50
332.31340680115898
 51
344.79528961864071
  0
ARC
  5
376D
  8
0
 10
289.38947086479402
 20
143.6986844749205
 30
0.0
 40
16.040503085884819
 50
24.035831741276169
 51
28.519626010728331
  0
LINE
  5
376E
  8
0
 10
308.20055935906942
 20
160.5376695475772
 30
0.0
 11
301.23468542569901
 21
154.5148127680948
 31
0.0
  0
ARC
  5
376F
  8
0
 10
330.44401607445218
 20
117.8175554836987
 30
0.0
 40
45.626667260144501
 50
116.8625626973126
 51
128.4733857840435
  0
ARC
  5
3770
  8
0
 10
289.38947086479402
 20
143.6986844749205
 30
0.0
 40
16.040503085884819
 50
52.1648660412651
 51
56.730266789660782
  0
ARC
  5
3771
  8
0
 10
289.38947086479402
 20
143.6986844749205
 30
0.0
 40
16.040503085884819
 50
42.399897282068359
 51
47.603517138956001
  0
ARC
  5
3772
  8
0
 10
289.38947086479402
 20
143.6986844749205
 30
0.0
 40
16.040503085884819
 50
33.27314763135977
 51
37.838548379759679
  0
ARC
  5
3773
  8
0
 10
289.38947086479402
 20
143.6986844749205
 30
0.0
 40
25.246949689350831
 50
54.053007752026822
 51
61.07396354266583
  0
ARC
  5
3774
  8
0
 10
258.67754482452619
 20
167.60090555049919
 30
0.0
 40
38.376476660144498
 50
346.04911605806512
 51
0.2288679736740503
  0
ARC
  5
3775
  8
0
 10
258.89618799353173
 20
163.76274508795541
 30
0.0
 40
36.212240660144509
 50
352.13981982771901
 51
7.2864681746798414
  0
ARC
  5
3776
  8
0
 10
259.55580673893348
 20
160.10658215142271
 30
0.0
 40
34.0480046601445
 50
358.43905322749782
 51
14.71451705153655
  0
LINE
  5
3777
  8
0
 10
288.1128623408577
 20
160.55159107227209
 30
0.0
 11
290.97769276378602
 21
165.51396438451809
 31
0.0
  0
LINE
  5
3778
  8
0
 10
291.3869499896025
 20
161.93770839748109
 30
0.0
 11
288.11286234085748
 21
160.55159107227209
 31
0.0
  0
ARC
  5
3779
  8
0
 10
289.38947086479402
 20
143.6986844749205
 30
0.0
 40
16.040503085884819
 50
61.483788410296562
 51
65.967582679747821
  0
ARC
  5
377A
  8
0
 10
289.38947086479402
 20
143.6986844749205
 30
0.0
 40
16.040503085884819
 50
70.407876344424295
 51
74.814585059690941
  0
LINE
  5
377B
  8
0
 10
291.43567906105909
 20
159.6081398793591
 30
0.0
 11
286.31718671099429
 21
157.44117561739321
 31
0.0
  0
ARC
  5
377C
  8
0
 10
259.55580673893348
 20
160.1065821514226
 30
0.0
 40
31.88376866014449
 50
350.97452744872209
 51
359.10425263047529
  0
ARC
  5
377D
  8
0
 10
289.38947086479402
 20
143.6986844749205
 30
0.0
 40
25.246949689350831
 50
77.588123481408573
 51
82.952316971708626
  0
ARC
  5
377E
  8
0
 10
271.00563353906631
 20
154.3118675522482
 30
0.0
 40
25.246949689350831
 50
37.05109744931503
 51
42.415290939615197
  0
ARC
  5
377F
  8
0
 10
259.55580673893348
 20
160.1065821514226
 30
0.0
 40
31.88376866014449
 50
3.2923826370531302
 51
9.7643716972417263
  0
ARC
  5
3780
  8
0
 10
300.13317254806162
 20
136.6808411324202
 30
0.0
 40
31.88376866014449
 50
110.2390427237809
 51
116.7110317839708
  0
LINE
  5
3781
  8
0
 10
285.8017054616833
 20
165.1621289390778
 30
0.0
 11
286.238546742636
 21
161.63365322481189
 31
0.0
  0
LINE
  5
3782
  8
0
 10
286.23854674263589
 20
161.63365322481189
 30
0.0
 11
289.10337716556421
 21
166.5960265370579
 31
0.0
  0
ARC
  5
3783
  8
0
 10
260.39308296462173
 20
114.7005685447357
 30
0.0
 40
35.709894000000013
 50
76.749397669114174
 51
88.265205634574926
  0
LINE
  5
3784
  8
0
 10
273.78921472917131
 20
154.6410914204908
 30
0.0
 11
279.15133823775358
 21
149.357403272467
 31
0.0
  0
ARC
  5
3785
  8
0
 10
236.9649736798475
 20
153.60469169986439
 30
0.0
 40
31.88376866014449
 50
352.53031863494152
 51
4.288006173319725
  0
ARC
  5
3786
  8
0
 10
300.13317254806162
 20
136.6808411324202
 30
0.0
 40
31.88376866014449
 50
145.7154082477056
 51
157.47309578608309
  0
ARC
  5
3787
  8
0
 10
260.39308296462173
 20
114.7005685447357
 30
0.0
 40
33.545658000000003
 50
61.850278855740008
 51
73.153135565284643
  0
ARC
  5
3788
  8
0
 10
260.39308296462173
 20
114.7005685447357
 30
0.0
 40
35.709894000000013
 50
61.738208786450983
 51
73.254016751910186
  0
ARC
  5
3789
  8
0
 10
267.3562935378983
 20
136.76584408576909
 30
0.0
 40
7.7218264627020163
 50
291.51964514840171
 51
5.0077572209364414
  0
ARC
  5
378A
  8
0
 10
260.39308296462173
 20
114.7005685447357
 30
0.0
 40
30.299303999999999
 50
62.048420308184198
 51
72.954994112838165
  0
ARC
  5
378B
  8
0
 10
260.39308296462173
 20
114.7005685447357
 30
0.0
 40
33.545658000000003
 50
46.850278855739738
 51
58.153135565281772
  0
ARC
  5
378C
  8
0
 10
260.39308296462173
 20
114.7005685447357
 30
0.0
 40
30.299303999999999
 50
47.048420308183289
 51
57.954994112837653
  0
ARC
  5
378D
  8
0
 10
260.39308296462173
 20
114.7005685447357
 30
0.0
 40
27.052949999999999
 50
32.805321394549551
 51
57.19809302647252
  0
LINE
  5
378E
  8
0
 10
281.03842436391892
 20
136.87753184882411
 30
0.0
 11
283.33519830382642
 21
139.17444266420421
 31
0.0
  0
LINE
  5
378F
  8
0
 10
282.56881591379567
 20
135.34723149668349
 30
0.0
 11
284.86558985370323
 21
137.64414231206359
 31
0.0
  0
ARC
  5
3790
  8
0
 10
260.39308296462173
 20
114.7005685447357
 30
0.0
 40
35.709894000000013
 50
46.749397669112753
 51
58.265205634574343
  0
LINE
  5
3791
  8
0
 10
279.17606695735083
 20
145.0715422173086
 30
0.0
 11
281.02565383597528
 21
148.2753411199273
 31
0.0
  0
LINE
  5
3792
  8
0
 10
277.30175135912913
 20
146.15360436984841
 30
0.0
 11
279.15133823775358
 21
149.357403272467
 31
0.0
  0
LINE
  5
3793
  8
0
 10
274.59513094912
 20
141.4652776956012
 30
0.0
 11
276.21915995090188
 21
144.2783720108028
 31
0.0
  0
LINE
  5
3794
  8
0
 10
276.4694465473417
 20
140.38321554306151
 30
0.0
 11
278.09347554912358
 21
143.19630985826299
 31
0.0
  0
ARC
  5
3795
  8
0
 10
255.39076244246289
 20
137.2912629914124
 30
0.0
 40
7.7218264627020163
 50
321.51964514840228
 51
35.007757220935552
  0
ARC
  5
3796
  8
0
 10
276.01954997949048
 20
131.7644548202222
 30
0.0
 40
7.7218264627020163
 50
114.9956572000869
 51
188.48376927262271
  0
ARC
  5
3797
  8
0
 10
260.39308296462173
 20
114.7005685447357
 30
0.0
 40
27.052949999999999
 50
62.805321394550333
 51
87.198093026471554
  0
ARC
  5
3798
  8
0
 10
260.39308296462173
 20
114.7005685447357
 30
0.0
 40
17.81634269545232
 50
63.357891295429212
 51
86.645523125592064
  0
ARC
  5
3799
  8
0
 10
260.39308296462173
 20
114.7005685447357
 30
0.0
 40
33.545658000000003
 50
76.850278855740143
 51
88.153135565283435
  0
LINE
  5
379A
  8
0
 10
267.1839914341715
 20
144.22905284452
 30
0.0
 11
268.02460060519132
 21
147.36662293082031
 31
0.0
  0
LINE
  5
379B
  8
0
 10
269.27449957017211
 20
143.66896963908451
 30
0.0
 11
270.11510874119199
 21
146.80653972538471
 31
0.0
  0
LINE
  5
379C
  8
0
 10
261.47429872856918
 20
144.98057507307391
 30
0.0
 11
261.47420194299428
 21
148.22880071417109
 31
0.0
  0
ARC
  5
379D
  8
0
 10
260.39308296462173
 20
114.7005685447357
 30
0.0
 40
30.299303999999999
 50
77.048420308183196
 51
87.954994112839415
  0
ARC
  5
379E
  8
0
 10
271.00563353906631
 20
154.3118675522482
 30
0.0
 40
9.3084823458983124
 50
50.956569028649263
 51
99.046845392375729
  0
ARC
  5
379F
  8
0
 10
300.13317254806162
 20
136.6808411324202
 30
0.0
 40
34.0480046601445
 50
133.0998405281548
 51
148.8132975291403
  0
LINE
  5
37A0
  8
0
 10
283.75994231103277
 20
164.03942361724299
 30
0.0
 11
284.44287111277271
 21
158.5232377699329
 31
0.0
  0
LINE
  5
37A1
  8
0
 10
280.05557677188762
 20
161.4490637537987
 30
0.0
 11
282.97598473636901
 21
155.98234119605411
 31
0.0
  0
LINE
  5
37A2
  8
0
 10
275.08259426246269
 20
156.40501998809609
 30
0.0
 11
280.26940324058017
 21
151.29408192785209
 31
0.0
  0
LINE
  5
37A3
  8
0
 10
278.38045031169048
 20
159.9916493397925
 30
0.0
 11
281.7015685542259
 21
153.7748357184708
 31
0.0
  0
LINE
  5
37A4
  8
0
 10
282.97598473636901
 20
155.98234119605411
 30
0.0
 11
284.44287111277271
 21
158.5232377699331
 31
0.0
  0
LINE
  5
37A5
  8
0
 10
280.26940324058017
 20
151.29408192785209
 30
0.0
 11
281.7015685542259
 21
153.77483571847091
 31
0.0
  0
LINE
  5
37A6
  8
0
 10
282.14371883880187
 20
150.2120197753122
 30
0.0
 11
283.5758841524476
 21
152.69277356593111
 31
0.0
  0
ARC
  5
37A7
  8
0
 10
300.13317254806162
 20
136.6808411324202
 30
0.0
 40
31.88376866014449
 50
133.01976894649911
 51
141.78401730918779
  0
ARC
  5
37A8
  8
0
 10
271.00563353906631
 20
154.3118675522482
 30
0.0
 40
16.040503085884819
 50
54.03583174127651
 51
58.519626010728643
  0
ARC
  5
37A9
  8
0
 10
271.00563353906631
 20
154.3118675522482
 30
0.0
 40
16.040503085884819
 50
45.188829361332523
 51
49.595538076602061
  0
ARC
  5
37AA
  8
0
 10
300.13317254806162
 20
136.6808411324202
 30
0.0
 40
31.88376866014449
 50
120.8991617905457
 51
129.0288869723008
  0
ARC
  5
37AB
  8
0
 10
271.00563353906631
 20
154.3118675522482
 30
0.0
 40
16.040503085884819
 50
72.399897282067144
 51
77.603517138955866
  0
ARC
  5
37AC
  8
0
 10
271.00563353906631
 20
154.3118675522482
 30
0.0
 40
16.040503085884819
 50
63.273147631362491
 51
67.838548379759956
  0
LINE
  5
37AD
  8
0
 10
267.45823289486373
 20
162.91789986995479
 30
0.0
 11
261.47387521356518
 21
159.19418383279049
 31
0.0
  0
ARC
  5
37AE
  8
0
 10
236.9649736798475
 20
153.60469169986439
 30
0.0
 40
31.88376866014449
 50
8.2193971118363578
 51
16.983645474522351
  0
ARC
  5
37AF
  8
0
 10
236.9649736798475
 20
153.60469169986439
 30
0.0
 40
34.0480046601445
 50
1.1901168918824401
 51
16.90357389286758
  0
LINE
  5
37B0
  8
0
 10
268.52122870036362
 20
158.16292305136059
 30
0.0
 11
261.47396056483859
 21
156.3297053727573
 31
0.0
  0
LINE
  5
37B1
  8
0
 10
268.75949352132591
 20
155.9886405297359
 30
0.0
 11
261.47402719700091
 21
154.09345995681349
 31
0.0
  0
LINE
  5
37B2
  8
0
 10
261.47396056483859
 20
156.3297053727573
 30
0.0
 11
261.47387521356518
 21
159.19418383279049
 31
0.0
  0
LINE
  5
37B3
  8
0
 10
261.47413742491511
 20
150.3940952792168
 30
0.0
 11
261.47402719700091
 21
154.09345995681349
 31
0.0
  0
ARC
  5
37B4
  8
0
 10
271.00563353906631
 20
154.3118675522482
 30
0.0
 40
16.040503085884819
 50
100.4078763444242
 51
104.8145850596904
  0
ARC
  5
37B5
  8
0
 10
271.00563353906631
 20
154.3118675522482
 30
0.0
 40
16.040503085884819
 50
91.483788410297251
 51
95.967582679746968
  0
ARC
  5
37B6
  8
0
 10
271.00563353906631
 20
154.3118675522482
 30
0.0
 40
16.040503085884819
 50
82.164866041263494
 51
86.730266789661584
  0
LINE
  5
37B7
  8
0
 10
263.61598924339921
 20
171.10606517182191
 30
0.0
 11
261.47360482797359
 21
168.2686085311928
 31
0.0
  0
LINE
  5
37B8
  8
0
 10
261.47379926350362
 20
161.7431477464425
 30
0.0
 11
261.47371184299487
 21
164.67707191601241
 31
0.0
  0
LINE
  5
37B9
  8
0
 10
266.73611290561843
 20
165.01757797693639
 30
0.0
 11
261.47379926350362
 21
161.7431477464425
 31
0.0
  0
LINE
  5
37BA
  8
0
 10
264.8229741162445
 20
169.112964191
 30
0.0
 11
261.47371184299487
 21
164.67707191601221
 31
0.0
  0
ARC
  5
37BB
  8
0
 10
236.9649736798475
 20
153.60469169986439
 30
0.0
 40
31.88376866014449
 50
20.974527448723862
 51
29.104252630474619
  0
ARC
  5
37BC
  8
0
 10
271.00563353906631
 20
154.3118675522482
 30
0.0
 40
25.246949689350831
 50
107.58812348140781
 51
112.95231697170991
  0
ARC
  5
37BD
  8
0
 10
271.00563353906631
 20
154.3118675522482
 30
0.0
 40
25.246949689350831
 50
47.675633310514982
 51
53.220093999539792
  0
ARC
  5
37BE
  8
0
 10
271.00563353906631
 20
154.3118675522482
 30
0.0
 40
25.246949689350831
 50
84.053007752023447
 51
91.073963542663591
  0
ARC
  5
37BF
  8
0
 10
271.00563353906631
 20
154.3118675522482
 30
0.0
 40
25.246949689350831
 50
58.929450878358111
 51
65.950406668997104
  0
ARC
  5
37C0
  8
0
 10
271.00563353906631
 20
154.3118675522482
 30
0.0
 40
25.246949689350831
 50
71.833718837389156
 51
78.169695583634152
  0
ARC
  5
37C1
  8
0
 10
271.00563353906631
 20
154.3118675522482
 30
0.0
 40
25.246949689350831
 50
96.783320421484348
 51
102.32778111050879
  0
ARC
  5
382A
  8
0
 10
114.71758537194481
 20
47.447723253390357
 30
0.0
 40
4.328471999999997
 50
205.01864264208521
 51
251.2258851728194
  0
ARC
  5
382E
  8
0
 10
256.47291077453218
 20
181.9489563526472
 30
0.0
 40
4.328471999999997
 50
25.018642642084
 51
71.225885172819176
  0
ARC
  5
382F
  8
0
 10
256.47291077453218
 20
47.447723253390357
 30
0.0
 40
4.328471999999997
 50
288.77411482718082
 51
334.98135735791539
  0
LINE
  5
3830
  8
0
 10
258.09524323990502
 20
185.0471309488436
 30
0.0
 11
258.09524323990502
 21
44.234058853018738
 31
0.0
  0
LINE
  5
3831
  8
0
 10
113.3245186707872
 20
186.0471309488436
 30
0.0
 11
257.86597747568982
 21
186.0471309488436
 31
0.0
  0
LINE
  5
3832
  8
0
 10
113.3245186707872
 20
43.3495486571939
 30
0.0
 11
257.86597747568982
 21
43.349548657193907
 31
0.0
  0
ENDSEC
  0
EOF
